Scorpions

home > Scorpions

Taxman Woman Tab

Scorpions

Difficulty: nolevelnolevel

by Evans+Hossel

tuner correct add songbook print version text version save to e-mail
chordsukulelecavacokeyboardtabbassdrumsharmonicsflute Guitar Pro
chords

Taxman Woman

Year: 1993 - Album: Face the Heat

  		(E A D G) 
 
(intro/verse) 
E-5-5------5-5-| 
A--------------| 
D-----x--------| 
G-------x------| 
 
(pre-Chorus) 
 
E-5-5-----5-5------5-5--| 
A-----------------------| 
D-----------------------| 
G-----------------------| 
 
(Chorus) 
 
E-10-10-------10-10-|-13-13------13-13-| 
A-------------------|------------------| 
D--------x----------|-------x----------| 
G----------x--------|---------x--------| 
 
E-8-8---------8-8---|-6-6---------6-6--| 
A-------------------|------------------| 
D-------x-----------|-------x----------| 
G----------x--------|----------x-------| 
 

	  

Full key step upFull key step up
Half key step upHalf key step up
Half key step downHalf key step down
Full key step downFull key step down
Search Paypal
auto scroll beats size up size down change color hide chords drawings
tab show chords e-chords YouTube Clip e-chords hide all tabs e-chords go to top tab