Scorpions

home > Scorpions

Rock You Like a Hurricane Tab

Scorpions

Difficulty: BeginnerBeginner

tuner correct add songbook print version text version save to e-mail
chordsukulelecavacokeyboardtabbassdrumsharmonicsflute Guitar Pro
chords

Rock You Like a Hurricane

Year: 1984 - Album: Bad For Good: The Very Best of Scorpions

(Meine / Rarebell / Schenker)

  		intro: 

    E5          G5	 A5       D5  E5
|--------------------------------------------|
|--------------------------------------------|	
|---9--9--9-----------------------5---7--7--:|	(play this 3 times)
|---9--9--9-----5--5-----7--7-----5---7--7---|
|---7--7--7-----5--5-----7--7-----3---5--5---|
|---------------3--3-----5--5----------------|

    E5          G5       A5       D
|---------------------------------2----
|---------------------------------3----		(then follow with this)
|---9--9--9--------------2--2-----2----
|---9--9--9-----5--5-----2--2-----0----
|---7--7--7-----5--5-----0--0----------
|---------------3--3-------------------

Verses begins without chords. Then on the end of each verse use E5 and D5

verse:
N.C.  -------- E5 E5 D5  N.C. D5 E5 N.C.  D5

chorus is the same as intro
	  

Full key step upFull key step up
Half key step upHalf key step up
Half key step downHalf key step down
Full key step downFull key step down
Search Paypal
auto scroll beats size up size down change color hide chords drawings
tab show chords e-chords YouTube Clip e-chords hide all tabs e-chords go to top tab