Scorpions

home > Scorpions

Love 'em Or Leave 'em Tab

Scorpions

Difficulty: AdvancedAdvanced

by Evans+Hossel

tuner correct add songbook print version text version save to e-mail
chordsukulelecavacokeyboardtabbassdrumsharmonicsflute Guitar Pro
chords

Love 'em Or Leave 'em

Year: 2004 - Album: Unbreakable

  		Intro:  
E------------------------------ 
B------------------------------ 
G-------------3----------------X3 
D-----1------------------------ 
A---3---3-5-3------------------ 
E------------------------------ 
 
Riff 1: 
 
E------------------------------------- 
B------------------------------------- 
G---------3-------------1-0-----------X4 
D-----1------------1---------3-1------ 
A-3-3---3-----3--3---3---------------- 
E------------------------------------- 
 
Riff 2: 
 
E------------------------------------------ 
B------------------------------------------ 
G------------------------------------------ 
D--6-x--6-xx-6-x--6-xx--6-x-6-xx--6-x-6---- 
A--6-x--6-xx-6-x--6-xx--6-x-6-xx--6-x-6---- 
E--4-x--4-xx-4-x--4-xx--4-x-4-xx--4-x-4---- 
 
Refrão: 
 
Guitarra 1: 
 
E------------------------------ 
B------------------------------ 
G--5-5---------8-8-------------X4 
D--5-5---6-6---8-8---8-8------- 
A--3-3---6-6---6-6---8-8------- 
E--------4-4---------6-6------- 
 
Refrão: 
 
Guitarra 2: 
 
E------------------------------------ 
B------------------------------------ 
G--5--7-8--10-8-10-15-13-12-10-8-7---X4 
D------------------------------------ 
A------------------------------------ 
E------------------------------------ 
 
Riff 3: 
 
E---------------------------------------------------- 
B---------------------------------------------------- 
G---------------------------------------------------- 
D--6---8---6---8---6---8---6---8-8888888888888------- 
A--6---8---6---8---6---8---6---8-8888888888888------- 
E--4---6---4---6---4---6---4---6-6666666666666------- 
 
 

	  

Search Paypal
auto scroll beats size up size down change color hide chords drawings
tab show chords e-chords YouTube Clip e-chords hide all tabs e-chords go to top tab