Scorpions

home > Scorpions

Life Is Too Short(Acoustica) Tab

Scorpions

Difficulty: AdvancedAdvanced

by Evans+Hossel

tuner correct add songbook print version text version save to e-mail
chordsukulelecavacokeyboardtabbassdrumsharmonicsflute Guitar Pro
chords

Life Is Too Short(Acoustica)

  		Intro : 
 
Essa Ú a parte tocada por Matthias 
 
        F#m                 E 
--------------------------------------| 
-----------5---5---5---5--------------| 
----1-2---------------------1-2-1-2-1-| 
--4-----4----2---2---2---2--2-2-2-2-2-| 
----------------------------2-2-2-2-2-| 
--------------------------------------| 
        F#m        
----------------------------------| 
---------5-----5-----3-----2------| 
---1-2-----2-----2-----2-----2----| 
-4-----4-----2-----2-----2-----2--| 
----------------------------------| 
----------------------------------| 
E 
---------------------------------| 
---------------------------------| 
-1-------2-----1-----2-----1-----| 
--2---2----2-----2-----2-----2---| 
----2--------2-----2-----2-----2-| 
---------------------------------| 
        F#m 
----------------------------------| 
---------5-----5-----3-----0------| 
---1-2-----2-----2-----2-----2----| 
-4-----4-----2-----2-----2-----2--| 
----------------------------------| 
----------------------------------| 
E                               A        Esus4 
--------------------------------------------| 
---------------------------------2--5-3-2---| 
-1-------2-----1-----2-----1-----2-2------2-| 
--2---2----2-----2-----2-----2---2--------2-| 
----2--------2-----2-----2----2-----------2-| 
--------------------------------------------| 
 
Verse :   
 
--------------------------------------| 
-----------5---5---5---5--------------| 
----1-2---------------------1-2-1-2-1-| 
--4-----4----2---2---2---2--2-2-2-2-2-| 
----------------------------2-2-2-2-2-| 
--------------------------------------|x2 
 
----------------------------------| 
---------5-----5-----3-----2------| 
---1-2-----2-----2-----2-----2----| 
-4-----4-----2-----2-----2-----2--| 
----------------------------------| 
----------------------------------| 
 
---------------------------------| 
---------------------------------| 
-1-------2-----1-----2-----1-----| 
--2---2----2-----2-----2-----2---| 
----2--------2-----2-----2-----2-| 
---------------------------------| x2 
         F#m 
have you ever seen the mourning 
         E 
when the sun comes out the shore 
        F#m 
and the silence makes 
            E 
a beautiful sound 
 
         F#m 
have you ever sat there waiting 
        E 
for the time to stand still 
            F#m 
for all the world to stop  
             E 
from turning around 
 
        A         E           F#m 
and you run cause life is too short 
and you run cause life is too short 
 
          D 
There's a time that turns 
    A 
I'd turn back time 
    E 
But I don't say I can 
        F#m                        E 
It only works if you believe in the truth 
               D 
Well there's a time to live 
      A 
And a time to cry 
    E 
But if you're by my side 
       F#m 
I will try to catch a star 
I'll try to catch a star 
         E 
Just for you 
 
Solo : 
 
----------------------------------------------| 
--5b7r5---3p2p0------5b7r5---5----------------| 
----------------2-4--------6------------------| 
----------------------------------------------| 
----------------------------------------------| 
----------------------------------------------| 
 
----------------------------------------------| 
--7-9-10--7-5-----------5-7---5b7-5-7---------| 
--------------4b6-2s4-6-----6---------6-7-6-4-| 
----------------------------------------------| 
----------------------------------------------| 
----------------------------------------------| 
        A         E           F#m 
and you run cause life is too short 
 
 
 
isso awe,qq d˙vida me contatem por [email protected] 

	  

Full key step upFull key step up
Half key step upHalf key step up
Half key step downHalf key step down
Full key step downFull key step down
Search Paypal
auto scroll beats size up size down change color hide chords drawings
tab show chords e-chords YouTube Clip e-chords hide all tabs e-chords go to top tab