Scorpions

home > Scorpions

Kojo No Tsuki Tab

Scorpions

Difficulty: ExpertExpert

by Andre020182

tuner correct add songbook print version text version save to e-mail
chordsukulelecavacokeyboardtabbassdrumsharmonicsflute Guitar Pro
chords

Kojo No Tsuki

Year: 2002 - Album: Tokyo Tapes

  		 
Note : 
pb  = pre-bend 
pbr = pre-bend and release 
h    = Hammer On 
p    = Pull Off 
/    = Slide Up 
\    = Slide Down 
v    = Vibrato 
^    = Harmonic 
 
------------------------------------------------------------------------------| 
------------------------------------------------------------------------------| 
------------------------------------------------------------------------------| 
-------2--4--5--4--2v---------------------------------------------------------| 
-2--2----------------------3--3--2--1--2--------------------------------------| 
-----------------------------------------------7-\----------------------------| 
 
 
------------------------------------------------------------------------------| 
------------------------------------------------------------------------------| 
------------------------------------------------------------------------------| 
-------2--4--5-h7---5h7p5---4---2v--------------------------------------------| 
-2--2-----------------------------------3--0--2--2----------------------------| 
----------------------------------------------------0-------------------------| 
 
 
------------------------------------------------------------------------------| 
------------------------------------------------------------------------------| 
-----------------------4b--4pbr--2--4--4pbr--2--4-----------------------------| 
-2--4---4b---4pb-4--2---------------------------------------------------------| 
------------------------------------------------------------------------------| 
------------------------------------------------------------------------------| 
 
 
------------------------------------------------------------------------------| 
------------------------------------------------------------------------------| 
-2h4p2--2--0-----0------------------------------------------------------------| 
--------------4------2--2--4----5-h7---5h7p5--4--2----------------------------| 
-----------------------------------------------------3--0--2--2---------------| 
-----------------------------------------------------------------0------------| 
 
 
-12--14--15p14--12-------------12--14--15--17--15--14-------------------------| 
---------------------15b-vvv---------------------------15b-vvv----------------| 
------------------------------------------------------------------------------| 
------------------------------------------------------------------------------| 
------------------------------------------------------------------------------| 
------------------------------------------------------------------------------| 
 
 
-12----12-14-15--14h15p14--14-------------------------------------------------| 
----15------------------------15--12h15p12------------------------------------| 
--------------------------------------------14--------------------------------| 
------------------------------------------------------------------------------| 
------------------------------------------------------------------------------| 
------------------------------------------------------------------------------| 
 
 
-12--14--17--14h17p14--12-----------------------------------------------------| 
---------------------------15--12h15p12---------------------------------------| 
-----------------------------------------14-----------------------------------| 
------------------------------------------------------------------------------| 
------------------------------------------------------------------------------| 
------------------------------------------------------------------------------| 
 
 
-------12----12-14-15-14-12----12---------------------------------------------| 
-15b------15----------------15----15-12------------15-------------------------| 
-----------------------------------------14pbr--12----------------------------| 
------------------------------------------------------------------------------| 
------------------------------------------------------------------------------| 
------------------------------------------------------------------------------| 
 
 
------------------------------------------------------------------------------| 
------------^-----------------------------------------------------------------| 
-14pbr--12-14--12-14-12-------------------------------------------------------| 
------------------------14-12-12h14-vvvvv-------------------------------------| 
------------------------------------------------------------------------------| 
------------------------------------------------------------------------------| 
 
 
------------------------------------------------------------------------------| 
------------------------------------------------------------------------------| 
-11--12--12pbr--11--9--11--7--7b----------------------------------------------| 
------------------------------------------------------------------------------| 
------------------------------------------------------------------------------| 
------------------------------------------------------------------------------| 
 
 
-12-14-15-14-12----14b-vv--14h15p14--12---------------------------------------| 
----------------15------------------------------------------------------------| 
------------------------------------------------------------------------------| 
------------------------------------------------------------------------------| 
------------------------------------------------------------------------------| 
------------------------------------------------------------------------------| 
 
 
-19b---19pbr-vvvvv---15--17--18--20--18--17--21b---21pbr-vvvvvv---------------| 
------------------------------------------------------------------------------| 
----------------------------------------------------------------------0-------| 
----------------------------------------------------------------------0-------| 
----------------------------------------------------------------------0-------| 
------------------------------------------------------------------------------| 
 
 
------12-12--14--15b-15--14h15p14--12vvvv---0---------------------------------| 
-15b--------------------------------------------------------------------------| 
------------------------------------------------------------------------------| 
------------------------------------------------------------------------------| 
------------------------------------------------------------------------------| 
------------------------------------------------------------------------------| 
 
 
------12--15-12h15p12---------------------------------------------------------| 
-----------------------15-----------10pbr--8--10-vvvvvv-----------------------| 
----------------------------12br-9--------------------------------------------| 
-/-14-------------------------------------------------------------------------| 
------------------------------------------------------------------------------| 
------------------------------------------------------------------------------| 
 
 
---------12-10----------------------------------------------------------------| 
-8-10-12-------12-10pbr-8-----------------------------------------------------| 
------------------------------------------------------------------------------| 
------------------------------------------------------------------------------| 
------------------------------------------------------------------------------| 
------------------------------------------------------------------------------| 
 
 
------------------------------------------------------------------------------| 
------------------------------------------------------------------------------| 
------------------------------------------------------------------------------| 
-------2--4--5--4h5p4--2------------------------------------------------------| 
-2--2----------------------3--3--2p1--2---------------------------------------| 
------------------------------------------------------------------------------| 
 
 
------3--5--5pbr--3---3-------------------------------------------------------| 
-2/4----------------5----5-vv-\-----------------------------------------------| 
------------------------------------------------------------------------------| 
------------------------------------------------------------------------------| 
------------------------------------------------------------------------------| 
------------------------------------------------------------------------------| 
 
 
------------------------------------------------------------------------------| 
------------------------------------------------------------------------------| 
------------------------------------------------------------------------------| 
-------2--4--5h7--5h7p5-4--2--------------------------------------------------| 
-2--2---------------------------3--0--2--2------------------------------------| 
--------------------------------------------0---------------------------------| 
 
 
------------------------------------------------------------------------------| 
-4/6--6/8--8/11--11/13--13/16--16/18--18/21--21\20--20\16--16h20p16-14--------| 
------------------------------------------------------------------------------| 
------------------------------------------------------------------------------| 
------------------------------------------------------------------------------| 
------------------------------------------------------------------------------| 
 
 
------------------------------------------------------------------------------| 
-14h16p13--13h14\11--11/13--8--8--11--6/8-------------------------------------| 
------------------------------------------------------------------------------| 
------------------------------------------------------------------------------| 
------------------------------------------------------------------------------| 
------------------------------------------------------------------------------| 

	  

Search Paypal
auto scroll beats size up size down change color hide chords drawings
tab show chords e-chords YouTube Clip e-chords hide all tabs e-chords go to top tab