Scorpions

home > Scorpions

In search of the piece of mind Tab

Scorpions

Difficulty: nolevelnolevel

by Andre020182

tuner correct add songbook print version text version save to e-mail
chordsukulelecavacokeyboardtabbassdrumsharmonicsflute Guitar Pro
chords

In search of the piece of mind

  		Intro 
¦----------------------------------------------------------------- 
¦---------------------------------------------------------12~----- 
¦--12-14-16-12~--12-14-16-----12-14-16-11-12-14^-11-12-14--------- 
¦-------------------------15~------------------------------------- 
¦----------------------------------------------------------------- 
¦----------------------------------------------------------------- 
lo siento pero no puedo sacar la otra guitarra 
 
Guitarra acustica 
-----0--0---0--0---0--0---0--0-------------------------- 
------3--3---3--3---3--3---3--3------------------------- 
-------2--2---2--2---2--2---2--2------------------------ 
---0---------------------------------------------------- 
-----------3-------2------0----------------------------- 
-------------------------------------------------------- 
 
 
 
----0--0--0---0--0--0---0--0--0---0--0--0-------------------- 
-----3--3--3---3--3--3---3--3--3---3--3--3------------------- 
------2--2--2---2--2--2---2--2--2---2--2--2------------------ 
---0--------------------------------------------------------- 
-------------3---------2---------0--------------------------- 
------------------------------------------------------------- 
 
 
 
Solo 
¦---------------------------------------------------------------------------- 
¦----------7h8h10---10p8p7--------------10------10--------------------------- 
¦---7---7h9---------------9p7------------9------9--7-----7h9--7-9-7-9-----7-- 
¦--------------------------------7h9---7----7h9--------------9--------------- 
¦------------------------------------9---------9----------------------------- 
¦---------------------------------------------------------------------------- 
 
 
 
--------10-10-8-7---7--------7------------------------------------------------------------ 
-----8~------------8--8---7h8-7h8---7-----------------------------------7h8-8h10p8p7h8p7~~ 
-7h9------------------------------------7--7---------7--------7-9-----7------------------- 
---------------------------------------7-----10p9-7-9-7----7h9-----7h9-------------------- 
------------------------------------------------------------------------------------------ 
------------------------------------------------------------------------------------------ 
 
 
----------------------------------------------------------- 
----------------------------------------------------------- 
---7------------------------------------------------------- 
-----7h9--------------------------------------------------- 
----------------------------------------------------------- 
----------------------------------------------------------- 
 
 
 
 
 
Las dos guitarras                   Desvanecer poco a poco 
---2--2--5--3----2--2--5--3----2--2--5--3-------------------- 
---3--3--7--5----3--3--7--5----3--3--7--5-------------------- 
---2--2--7--5----2--2--7--5----2--2--7--5-------------------- 
------------------------------------------------------------- 
------------------------------------------------------------- 
------------------------------------------------------------- 
 
 
 
 
elctrica con tono limpio 
-------------------------------------------------- 
-------------------------------------------------- 
-------------------------------------------------- 
-------------------------------------------------- 
----2--3--2---2--3--2----------------------------- 
---0--0------0--0--------------------------------- 
 
 
 
Cualquier pregunta, aportación o comentario 
 
[email protected]         [email protected] 
 
 
 
 
	  

Search Paypal
auto scroll beats size up size down change color hide chords drawings
tab show chords e-chords YouTube Clip e-chords hide all tabs e-chords go to top tab