Scorpions

home > Scorpions

Heroes dont cry Tab

Scorpions

Difficulty: IntermediateIntermediate

by Andre020182

tuner correct add songbook print version text version save to e-mail
chordsukulelecavacokeyboardtabbassdrumsharmonicsflute Guitar Pro
chords

Heroes dont cry

Year: 1995 - Album: Live Bites

  		heroes dont cry 
scorpions 
 
----------------0--------------------0--------0---------0--------- 
---------------------1-------------------1--------0--------0------ 
---------------------------2------------------------------------- 
-----------2----------------------------------------------------- 
------0---------------------------------------------------------- 
---------------------------------------------------------------- 
 
 
-------------------0-----------------------0------------------------ 
----------------------------1-----------------------1---------0------ 
-----------------------------------2------------------------------- 
----------2-------------------------------------------------------- 
------0------------------------------------------------------------ 
------------------------------------------------------------------ 
 
in part 2 
 
------------3--------------------------3-------------3--------------- 
------------------4--------------------------3------------3---------- 
-------------------------3---------------------------------------- 
------------------------------------------------------------------ 
------------------------------------------------------------------ 
------------------------------------------------------------------ 
THE SOLO 
-------5--8-----15--------5-------8---------12-----------13---12---8---- 
------------------------------------------------------------------------ 
------------------------------------------------------------------------ 
------------------------------------------------------------------------ 
------------------------------------------------------------------------ 
------------------------------------------------------------------------ 
 
----8\10-------8---7-------5-------3-------0-------------16--18------- 
-----------------------------------------------3\5---------------------- 
------------------------------------------------------------------------ 
------------------------------------------------------------------------ 
------------------------------------------------------------------------ 
------------------------------------------------------------------------ 
 
--12-----12----19----14----12---10---12/14---13 ---12--10---12---13--12 
------------------------------------------------------------------------ 
------------------------------------------------------------------------ 
------------------------------------------------------------------------ 
------------------------------------------------------------------------ 
------------------------------------------------------------------------ 
 

	  

Search Paypal
auto scroll beats size up size down change color hide chords drawings
tab show chords e-chords YouTube Clip e-chords hide all tabs e-chords go to top tab