Scorpions

home > Scorpions

Dust in the wind (Intro cifra ou tab) acoustica Tab

Scorpions

Difficulty: BeginnerBeginner

by Slash+teen

tuner correct add songbook print version text version save to e-mail
chordsukulelecavacokeyboardtabbassdrumsharmonicsflute Guitar Pro
chords

Dust in the wind (Intro cifra ou tab) acoustica

  		esta cifra não tem no site mas especialmente eu tirei ela só para vcs  
 
A BATIDA DESTA MÚSICA É SOMENTE DUAS PARA BAIXO, DUAS PARA CIMA E UMA PARA BAIXO 
CADA NOTA LEVA A MESMA BATIDA 
 
 
 
 
    C          C7+       C9          C   
e/--0-0-0-0-0--0-0-0-0-0--0-0-0-0-0--0-0-0-0-0---------- 
b/--1-1-1-1-1--0-0-0-0-0--3-3-3-3-3--1-1-1-1-1---------- 
g/--0-0-0-0-0--0-0-0-0-0--0-0-0-0-0--0-0-0-0-0---------- 
D/--2-2-2-2-2--2-2-2-2-2--2-2-2-2-2--2-2-2-2-2---------- 
A/--3-3-3-3-3--3-3-3-3-3--3-3-3-3-3--3-3-3-3-3---------- 
E/------------------------------------------------------ 
 
   A9             A4              Am           A9             
 
E/-0-|------------0-|-------------0-|----------0-------- 
B/-0-|------------3-|-------------1-|----------0-------- 
G/-2-|------------2-|-------------2-|----------2-------- 
D/-2-|------------2-|-------------2-|----------2-------- 
A/-0-|------------0-|-------------0-|----------0-------- 
E/---|--------------|---------------|-------------------   
  
ESTA PARTE        ESTA PARTE            ESTAS DUAS PARTES REPITA 5X CADA   
VC REPETE         VC REPETE 
5X                5X 
 
   C9 C   C7+  C9     Am A9  A4  Am 
   
E/-0-|-0-|-0-|--0-|---0-|-0-|-0-|-0-|---------------- 
B/-3-|-1-|-0-|--3-|---1-|-0-|-3-|-1-|---------------- 
G/-0-|-0-|-0-|--0-|---2-|-2-|-2-|-2-|---------------- 
D/-2-|-2-|-2-|--2-|---2-|-2-|-2-|-2-|---------------- 
A/-3-|-3-|-3-|--3-|---0-|-0-|-0-|-0-|---0-2-3-------- 
E/---|---|---|----|-----|---|---|---|---------------- 
 
 
CADA PARTE DEVE SER REPETIDA 5X E EM CADA NOTA A BATIDA  
EXPLICADA ACIMA QUE É A MESMA COISA QUE REPETIR 5X OK 
ESTA ULTIMA PARTE SÓ É UMA VEZ A PATE DO BAIXO  
QUE É -0-2-3- 
 
 
 
 
 

	  

Search Paypal
auto scroll beats size up size down change color hide chords drawings
tab show chords e-chords YouTube Clip e-chords hide all tabs e-chords go to top tab