Scorpions

home > Scorpions

Don't Make No Promisses (Your Body Can't Keep) Tab

Scorpions

Difficulty: nolevelnolevel

by Andre020182

tuner correct add songbook print version text version save to e-mail
chordsukulelecavacokeyboardtabbassdrumsharmonicsflute Guitar Pro
chords

Don't Make No Promisses (Your Body Can't Keep)

  		 
Intro (Rhythm Guitar) : 
Play this Overdrive 4 times 
 
 
 
|-------------------------------------------------------| 
|-------------------------------------------------------| 
|-7-7--7---------7-7--7---------7-7--7---------10----5--| 
|-7-7--7----3----7-7--7----3----7-7--7----3----10----5--| 
|-5-5--5--0---0--5-5--5--0---0--5-5--5--0---0---8----3--| 
|-------------------------------------------------------| 
 
 
Verse: 
 
|-----------------------------------------------------------| 
|-----------------------------------------------------------| 
|--7---------------------5-5-5--7--------------------5-6-7--| 
|--7----3--5----5--7-----5-5-5--7---3--5----5--7-----5-6-7--| 
|--5----3--5----5--7-----3-3-3--5---3--5----5--7-----3-4-5--| 
|-------1--3----3--5----------------1--3----3--5------------| 
 
ooh, I saw this girl walking down the street..... 
 
 
 
Chorus: 
 
 
|--------------------------------------------------------| 
|--------------------------------------------------------| 
|-10----12----5----7-7-7--------10----12----5-----7-7-7--| 
|-10----12----5----7-7-7--------10----12----5-----7-7-7--| 
|--8----10----3----5-5-5---------8----10----3-----5-5-5--| 
|--------------------------------------------------------| 
 
Oh no don't make no promisses... Oh no your body can't keep 
 
 
 
Solo: 
The solo is too fast, I couldn't catch it!!  
but i got the rhythm during the solo, it's the same than the intro: 
 
 
|-------------------------------------------------------| 
|-------------------------------------------------------| 
|-7-7--7---------7-7--7---------7-7--7---------10----5--| 
|-7-7--7----3----7-7--7----3----7-7--7----3----10----5--| 
|-5-5--5--0---0--5-5--5--0---0--5-5--5--0---0---8----3--| 
|-------------------------------------------------------| 
 

	  

Search Paypal
auto scroll beats size up size down change color hide chords drawings
tab show chords e-chords YouTube Clip e-chords hide all tabs e-chords go to top tab