Scorpions

home > Scorpions

Another Piece Of Meat Tab

Scorpions

Difficulty: EasyEasy

by Evans+Hossel

tuner correct add songbook print version text version save to e-mail
chordsukulelecavacokeyboardtabbassdrumsharmonicsflute Guitar Pro
chords

Another Piece Of Meat

Year: 1979 - Album: Lovedrive

  		intro (play several times) 
------------------------------------------------------ 
------------------------------------------------------ 
------------------------------------------------------ 
------------------------------------------------------ 
-2p0-2p0-2p0--0-2-3-4-5---2p0-2p0-2p0--0-2-3-4-------- 
------------------------------------------------------ 
 
------------------------------------------------------ 
------------------------------------------------------ 
------------------------------------------------------ 
-----------------------5---7-------------------------- 
-2p0-2p0-2p0--0-3-4-5--5---7-------------------------- 
-----------------------3---5-------------------------- 
 
verse 
------------------------------------------------------ 
------------------------------------------------------ 
------------------------------------------------------ 
--5---7--/---x--5----7-/----x--5----7--/-------------- 
--5---7--/---x--5----7-/----x--5----7--/-------------- 
--3---5--/---x--3----5-/----x--3----5--/-------------- 
 
Chorus 
---------------------------------------------------------------- 
---------------------------------------------------------------- 
-9----7--------------------------------------------------------- 
-9----7----7----9-----4/5---4/5---4/5---4/5-----9-9-9-9-9-9-9-9- 
-7----5----7----9-----4/5---4/5---4/5---4/5-----9-9-9-9-9-9-9-9- 
-----------5----7-----2/3---2/3---2/3---2/3-----7-7-7-7-7-7-7-7- 
 
------------------------------------------------------ 
------------------------------------------------------ 
-9----7----------------------------------------------- 
-9----7----7----9-----4/5---4/5----------------------- 
-7----5----7----9-----4/5---4/5----------------------- 
-----------5----7-----2/3---2/3----------------------- 
 
rhythm under solo (play several times) 
-------------------------------------------------------- 
-------------------------------------------------------- 
-6-6-6-6-6-6-6-6------------6-6-6-6-6-6-6-6------------- 
-6-6-6-6-6-6-6-6------------6-6-6-6-6-6-6-6------------- 
-4-4-4-4-4-4-4-4-4p0--2-3---4-4-4-4-4-4-4-4------------- 
--------------------------------------------2-3-4------- 
 
ends with 
------------------------------------------------------ 
------------------------------------------------------ 
------------------------------------------------------ 
------------------------------------------------------ 
--------2-3-4--------2-3-4---------------------------- 
--2-3-4--------2-3-4---------------------------------- 
 
ends with after Chorus 
------------------------------------------------------ 
------------------------------------------------------ 
------------------------------------------------------ 
---9--------------------------------------------------- 
---9--------------------------------------------------- 
---7--------------------------------------------------- 

	  

Search Paypal
auto scroll beats size up size down change color hide chords drawings
tab show chords e-chords YouTube Clip e-chords hide all tabs e-chords go to top tab