School of Rock

School of Rock (Zach's Song)

School of Rock

tabs Beginner beginner

by  VMEHMERI

save to print version add songbook text version e-mail correct tuner
chordsukulelecavacokeyboardtabbassdrumsharmonicaflute Guitar Pro
close

there isn't a video lesson for this song

chords

School of Rock (Zach's Song)

	  		Intro 
Guitar 1 
e------------------------------------ 
A--7-7-7-8-7-10-8-7-8---8---7-7-8-8-- 
D--7-7-7-7-7- 7-7-7-7-7-7-7-7-7-7-7--  Repeat 6X 
G------------------------------------ 
B------------------------------------ 
E------------------------------------ 
 
There's a little variation of the main thing here 
e------------------------------------ 
A--7-----8-7-10-8-7-8---8---7---8---- 
D--7-7-7-7-7- 7-7-7-7-7-7-7-7-7-7-7--  Repeat 13X 
G------------------------------------ 
B------------------------------------ 
E------------------------------------ 
Guitar 2   
(After guitar 1 repeats 2X) 
e------------------------------------ 
A------------------------------------ 
D--7---------------------------------  Repeat 2X 
G--7--------------------------------- 
B--5--------------------------------- 
E------------------------------------ 
 
e------------------------------------ 
A------------------------------------ 
D--7-----7-----7---------------------  Repeat 2X 
G--7-----7-----7--------------------- 
B--5-----5-----5--------------------- 
E------------------------------------ 
 
This part here is played during the verse and durng the Chorus 
e---------------------------------------------- 
A---------------------------------------------- 
D--7------------5----------4-----------5-------  Repeat 6X 
G--7------------5----------4-----------5------- 
B--5------------3----------2-----------3------- 
E---------------------------------------------- 
 
This is played as a lead in to the Chorus 
e------3-------- 
A------3-------- 
D------4--------   
G------5-------- 
B------5-------- 
E------3-------- 

		  

auto scroll beats size up size down change color hide chords drawings
tab show chords e-chords YouTube Clip e-chords hide all tabs e-chords go to top tab

share