Scars On 45

This Is Not Your Love Song

Scars On 45

tabs

by  EDSOOLIVEIRA

save to print version add songbook text version e-mail correct tuner
chordsukulelecavacokeyboardtabbassdrumsharmonicaflute Guitar Pro
close

there isn't a video lesson for this song

chords

This Is Not Your Love Song

	  		

d#|---------------------------------------------------| 
A#|---------------------------------------------------| 
F#|-9--8--9--8--9--9--8--9--8--8--8--9----------------| 
C#|-9--9--9--9--9--9--9--9--9--9--9--9----------------| 
G#|-7--7--7--7--X--0--0--0--0--X--X--X----------------| 
D#|-0--0--0--0--9--0--0--0--0--7--7--7----------------| 

****BRIDGE CHORDS**** 

d#|---------------------------------------------------| 
A#|---------------------------------------------------| 
F#|-9--9--9--8--9--9--9--8--9--8----------------------| 
C#|-9--9--9--9--9--9--9--9--9--9----------------------| 
G#|-X--0--7--X--X--0--X--X--X--X----------------------| 
D#|-9--0--0--7--9--0--7--7--7--7----------------------| 

****Chorus CHORDS**** 

d#|----------------------------- ... -----------------| 
A#|----------------------------- ... -----------------| 
F#|-9--9---8----9--9--9---8--9-- ... -----------------| 
C#|-9--9---9----9--9--9---9--9-- ... -----------------| 
G#|-0--11--X----X--0--11--X--0-- ... -----------------| 
D#|-0--0---7----9--0--0---7--0-- ... -----------------| 


****verse 1**** 

No more excuses 
No more mistakes 
No use pretending now 
This isn't too late 
But I found you through the fire 
And I've lost you in this lonely old house 

****BRIDGE 1**** 

Remember it was you and me 
Preparing on broken history 
But memories fade away 
I'm glad you gave me time to grow 
Now I'm just fine livin' on my own 
& 
****Chorus 1**** 

You'll never know what I'm thinking 
You'll never know what I want 
You'll never know how I'm feeling 
This is not your love song 

You never know what I'm thinking 
I know that I was wrong 
This is not your love song 
hoooo 
This is not your love song 
hoooo 
This is not your love song 
hoooo 

***** 
Have fun and rate 
EtiFra954 
This is not your love song 

****verse 2**** 

So I tore out the pages 
Of the story of our lives 
Tore me down to pieces 
When I finally realized 
You're just an education 
A lesson learnt without knowing why 

****BRIDGE 2**** 

Remember it was you and me 
Preparing on broken history 
but Memories fade away 
I'm glad you gave me time to grow 
Now I'm just fine livin' on my own 

****Chorus 2**** 

You'll never know what I'm thinking 
You'll never know what I want 
You'll never know how I'm feeling 
This is not your love song 

You'll never know what I'm thinking 
I know that I was wrong 
This is not your love song 

You'll never know what I'm thinking 
You'll never know what I want 
You'll never know how I'm feeling 
This is not your love song 
hoooo 
This is not your love song 
hoooo 
This is not your love song 
hoooo 
This is not your love song 
hoooo 
This is not your love song 
hoooo 
This is not your love song 
		  

See also:

tabs Arctic Monkeys - R U Mine? tabs Focus - Hocus Pocus (easy Version) tabs Alt-J - Breezeblocks tabs Oasis - FuckinŽin the Bushes tabs Blur - #2 tabs Faith no More - Evidence
e-chords

Other versions:

tabs Scars On 45 - This Is Not Your Love Song
auto scroll beats size up size down change color hide chords drawings
tab show chords e-chords YouTube Clip e-chords hide all tabs e-chords go to top tab

share