Say Anything

You Vandal

Say Anything

tabs

by  ALYSLIMA

save to print version add songbook text version e-mail correct tuner
chordsukulelecavacokeyboardtabbassdrumsharmonicaflute Guitar Pro
close

there isn't a video lesson for this song

chords

You Vandal

	  		

Tuning: Standard 

An amazing cover by Say Anything. This sounds pretty accurate to me, except for the random open strings that  
Max Bemis rings out during the chords. The only thing missing is the little bit of lead fills that occur in  
the second verse. Please comment or email if you have any questions or see anything that's wrong. 

Intro 

e|--x-x-x-x-x-x-x--x-x-x-x-x-x-x--x-x-x-x-x-x-x--x-x-x-x-x-x-x-x-x-x-x-x-x-x-x-----------------------------| 
B|--x-x-x-x-x-x-x--x-x-x-x-x-x-x--x-x-x-x-x-x-x--x-x-x-x-x-x-x-x-x-x-x-x-x-x-x-----------------------------| 
G|--6-7-6-6-6-6-6--6-7-6-6-6-6-6--6-7-6-6-6-6-6--9-9-9-9-9-9-9-9-9-9-9-9-9-9-9-----------------------------| 
D|--7-7-7-7-7-7-7--7-7-7-7-7-7-7--x-x-x-x-x-x-x--6-6-6-7-7-7-7-7-9-9-9-7-7-6-6-----------------------------| 
A|--x-x-x-x-x-x-x--5-5-5-5-5-5-5--7-7-7-7-7-7-7--7-7-7-7-7-7-7-7-7-7-7-7-7-7-7-----------------------------| 
E|--7-7-7-7-7-7-7--x-x-x-x-x-x-x--5-5-5-5-5-5-5--x-x-x-x-x-x-x-x-x-x-x-x-x-x-x-----------------------------| 

verse 1 

            Last night I   dreamt you called 
e|--x-x--x-x-x-x--x-x-x-x--x-x--x-x-x-x--------------------------------------------------------------------| 
B|--x-x--x-x-x-x--x-x-x-x--x-x--x-x-x-x--------------------------------------------------------------------| 
G|--9-9--9-9-9-9--9-9-9-9--9-9--9-9-9-9--------------------------------------------------------------------| 
D|--7-7--7-7-7-7--7-7-7-7--7-7--7-7-7-7--------------------------------------------------------------------| 
A|--9-9--9-9-9-9--9-9-9-9--5-5--5-5-5-5--------------------------------------------------------------------| 
E|--x-x--x-x-x-x--x-x-x-x--x-x--x-x-x-x--------------------------------------------------------------------| 

    from Costa Rica 
e|---x---x-x-----x-x---x-x-x-x-x---------------------------------------------------------------------------| 
B|---x---x-x-----x-x---x-x-x-x-x---------------------------------------------------------------------------| 
G|---9---9-9-----9-9---9-9-9-9-9---------------------------------------------------------------------------| 
D|---7---7-7-----7-7---7-7-7-7-7---------------------------------------------------------------------------| 
A|---5---5-5-----7-7---7-7-7-7-7---------------------------------------------------------------------------| 
E|---x---x-x-----5-5---5-5-5-5-5---------------------------------------------------------------------------| 

     Yeah, the place you've been the last two weeks 
e|-----x-x-x----x-x-x-x-x-x-x-x-x-x-x-x-x-x-x--------------------------------------------------------------| 
B|-----x-x-x----x-x-x-x-x-x-x-x-x-x-x-x-x-x-x--------------------------------------------------------------| 
G|-----9-9-9----9-9-9-9-9-9-9-9-9-9-9-9-9-9-9--------------------------------------------------------------| 
D|-----7-7-7----6-6-6-7-7-7-7-7-9-9-9-7-7-6-6--------------------------------------------------------------| 
A|-----7-7-7----7-7-7-7-7-7-7-7-7-7-7-7-7-7-7--------------------------------------------------------------| 
E|-----5-5-5----x-x-x-x-x-x-x-x-x-x-x-x-x-x-x--------------------------------------------------------------| 

         Said "I miss you, oh sweet boy,  
e|--x-x--x-x-x-x--x-x-x-x--x-x--x-x-x-x--------------------------------------------------------------------| 
B|--x-x--x-x-x-x--x-x-x-x--x-x--x-x-x-x--------------------------------------------------------------------| 
G|--9-9--9-9-9-9--9-9-9-9--9-9--9-9-9-9--------------------------------------------------------------------| 
D|--7-7--7-7-7-7--7-7-7-7--7-7--7-7-7-7--------------------------------------------------------------------| 
A|--9-9--9-9-9-9--9-9-9-9--5-5--5-5-5-5--------------------------------------------------------------------| 
E|--x-x--x-x-x-x--x-x-x-x--x-x--x-x-x-x--------------------------------------------------------------------| 

        will you come on down?"  I woke  
e|---x---x-x-----x-x---x-x-x-x-x---------------------------------------------------------------------------| 
B|---x---x-x-----x-x---x-x-x-x-x---------------------------------------------------------------------------| 
G|---9---9-9-----9-9---9-9-9-9-9---------------------------------------------------------------------------| 
D|---7---7-7-----7-7---7-7-7-7-7---------------------------------------------------------------------------| 
A|---5---5-5-----7-7---7-7-7-7-7---------------------------------------------------------------------------| 
E|---x---x-x-----5-5---5-5-5-5-5---------------------------------------------------------------------------| 

       up to my cold sheets and the smell of New Jersey.    When Do I 
e|-----x-x-x----x-x-x-x-x-x-x-x-x-x-x-x-x-x-x----x-x-x-----------------------------------------------------| 
B|-----x-x-x----x-x-x-x-x-x-x-x-x-x-x-x-x-x-x----x-x-x-----------------------------------------------------| 
G|-----9-9-9----9-9-9-9-9-9-9-9-9-9-9-9-9-9-9----9-9-9-----------------------------------------------------| 
D|-----7-7-7----6-6-6-7-7-7-7-7-9-9-9-7-7-6-6----7-7-7-----------------------------------------------------| 
A|-----7-7-7----7-7-7-7-7-7-7-7-7-7-7-7-7-7-7----9-9-9-----------------------------------------------------| 
E|-----5-5-5----x-x-x-x-x-x-x-x-x-x-x-x-x-x-x----x-x-x-----------------------------------------------------| 

               get to      Wake up to     
e|--x-x--x-x-x-x--x-x-x-x--x-x--x-x-x-x--------------------------------------------------------------------| 
B|--x-x--x-x-x-x--x-x-x-x--x-x--x-x-x-x--------------------------------------------------------------------| 
G|--9-9--9-9-9-9--9-9-9-9--9-9--9-9-9-9--------------------------------------------------------------------| 
D|--7-7--7-7-7-7--7-7-7-7--7-7--7-7-7-7--------------------------------------------------------------------| 
A|--9-9--9-9-9-9--9-9-9-9--5-5--5-5-5-5--------------------------------------------------------------------| 
E|--x-x--x-x-x-x--x-x-x-x--x-x--x-x-x-x--------------------------------------------------------------------| 

     you.         Tonight I can't forget 
e|---x---x-x-----x-x---x-x-x-x-x---------------------------------------------------------------------------| 
B|---x---x-x-----x-x---x-x-x-x-x---------------------------------------------------------------------------| 
G|---9---9-9-----9-9---9-9-9-9-9---------------------------------------------------------------------------| 
D|---7---7-7-----7-7---7-7-7-7-7---------------------------------------------------------------------------| 
A|---5---5-5-----7-7---7-7-7-7-7---------------------------------------------------------------------------| 
E|---x---x-x-----5-5---5-5-5-5-5---------------------------------------------------------------------------| 

     that I've  got these open wound's, it's such a 
e|-----x-x-x----x-x-x-x-x-x-x-x-x-x-x-x-x-x-x--------------------------------------------------------------| 
B|-----x-x-x----x-x-x-x-x-x-x-x-x-x-x-x-x-x-x--------------------------------------------------------------| 
G|-----9-9-9----9-9-9-9-9-9-9-9-9-9-9-9-9-9-9--------------------------------------------------------------| 
D|-----7-7-7----6-6-6-7-7-7-7-7-9-9-9-7-7-6-6--------------------------------------------------------------| 
A|-----7-7-7----7-7-7-7-7-7-7-7-7-7-7-7-7-7-7--------------------------------------------------------------| 
E|-----5-5-5----x-x-x-x-x-x-x-x-x-x-x-x-x-x-x--------------------------------------------------------------| 

   drag. I Can't forget you've gone 
e|--x-x--x-x-x-x--x-x-x-x--x-x--x-x-x-x--------------------------------------------------------------------| 
B|--x-x--x-x-x-x--x-x-x-x--x-x--x-x-x-x--------------------------------------------------------------------| 
G|--9-9--9-9-9-9--9-9-9-9--9-9--9-9-9-9--------------------------------------------------------------------| 
D|--7-7--7-7-7-7--7-7-7-7--7-7--7-7-7-7--------------------------------------------------------------------| 
A|--9-9--9-9-9-9--9-9-9-9--5-5--5-5-5-5--------------------------------------------------------------------| 
E|--x-x--x-x-x-x--x-x-x-x--x-x--x-x-x-x--------------------------------------------------------------------| 

     yeah my     ribs have parted ways 
e|---x---x-x-----x-x---x-x-x-x-x---------------------------------------------------------------------------| 
B|---x---x-x-----x-x---x-x-x-x-x---------------------------------------------------------------------------| 
G|---9---9-9-----9-9---9-9-9-9-9---------------------------------------------------------------------------| 
D|---7---7-7-----7-7---7-7-7-7-7---------------------------------------------------------------------------| 
A|---5---5-5-----7-7---7-7-7-7-7---------------------------------------------------------------------------| 
E|---x---x-x-----5-5---5-5-5-5-5---------------------------------------------------------------------------| 

   said "We're not going to protect this heart you have" 
e|-----x-x-x----x-x-x-x-x-x-x-x-x-x-x-x-x-x-x--------------------------------------------------------------| 
B|-----x-x-x----x-x-x-x-x-x-x-x-x-x-x-x-x-x-x--------------------------------------------------------------| 
G|-----9-9-9----9-9-9-9-9-9-9-9-9-9-9-9-9-9-9--------------------------------------------------------------| 
D|-----7-7-7----6-6-6-7-7-7-7-7-9-9-9-7-7-6-6--------------------------------------------------------------| 
A|-----7-7-7----7-7-7-7-7-7-7-7-7-7-7-7-7-7-7--------------------------------------------------------------| 
E|-----5-5-5----x-x-x-x-x-x-x-x-x-x-x-x-x-x-x--------------------------------------------------------------| 

Chorus 

          Whoa,      hey     what can I do           My lungs are breathing open  
e|----x-x-------x-x------x-x------x-x------------x-x---------------x-x-------------------------------------| 
B|----x-x-------x-x------x-x------x-x------------x-x---------------x-x-------------------------------------| 
G|----9-9-------9-9------9-9------9-9------------9-9---------------9-9-------------------------------------| 
D|----7-7-------7-7------7-7------6-6------------7-7---------------7-7-------------------------------------| 
A|----7-7-------5-5------9-9------7-7------------7-7---------------5-5-------------------------------------| 
E|----5-5-------x-x------x-x------x-x------------5-5---------------x-x-------------------------------------| 

      air my spleen is dripping from my pants. Whoa,      hey    what can I do 
e|----x-x--------------x-x---------------x-x------x-x-------x-x-------x-x----------------------------------| 
B|----x-x--------------x-x---------------x-x------x-x-------x-x-------x-x----------------------------------| 
G|----9-9--------------9-9---------------9-9------9-9-------9-9-------9-9----------------------------------| 
D|----7-7--------------6-6---------------7-7------7-7-------7-7-------6-6----------------------------------| 
A|----9-9--------------7-7---------------7-7------5-5-------9-9-------7-7----------------------------------| 
E|----x-x--------------x-x---------------5-5------x-x-------x-x-------x-x----------------------------------| 

         you left me  in the cold and I miss you 
e|----x-x----------- -x-x------x-x------x-x-------x-x-x-x-x--x-x-x---x-x-x-x-x-x-x-x-x---------------------| 
B|----x-x-------------x-x------x-x------x-x-------x-x-x-x-x--x-x-x---x-x-x-x-x-x-x-x-x---------------------| 
G|----9-9-------------9-9------9-9------9-9-------9-9-9-9-9--9-9-9---9-9-9-9-9-9-9-9-9---------------------| 
D|----7-7-------------7-7------7-7------6-6-------6-6-6-6-6--6-6-6---6-6-6-6-6-6-6-6-6---------------------| 
A|----7-7-------------5-5------9-9------7-7-------9-9-9-9-9--9-9-9---9-9-9-9-9-9-9-9-9---------------------| 
E|----5-5-------------x-x------x-x------x-x-------x-x-x-x-x--x-x-x---x-x-x-x-x-x-x-x-x---------------------| 

verse 2 

             Never told me it would be  
e|--x-x--x-x-x-x--x-x-x-x--x-x--x-x-x-x--------------------------------------------------------------------| 
B|--x-x--x-x-x-x--x-x-x-x--x-x--x-x-x-x--------------------------------------------------------------------| 
G|--9-9--9-9-9-9--9-9-9-9--9-9--9-9-9-9--------------------------------------------------------------------| 
D|--7-7--7-7-7-7--7-7-7-7--7-7--7-7-7-7--------------------------------------------------------------------| 
A|--9-9--9-9-9-9--9-9-9-9--5-5--5-5-5-5--------------------------------------------------------------------| 
E|--x-x--x-x-x-x--x-x-x-x--x-x--x-x-x-x--------------------------------------------------------------------| 

     this hard.  I think my my body's  
e|---x---x-x-----x-x---x-x-x-x-x---------------------------------------------------------------------------| 
B|---x---x-x-----x-x---x-x-x-x-x---------------------------------------------------------------------------| 
G|---9---9-9-----9-9---9-9-9-9-9---------------------------------------------------------------------------| 
D|---7---7-7-----7-7---7-7-7-7-7---------------------------------------------------------------------------| 
A|---5---5-5-----7-7---7-7-7-7-7---------------------------------------------------------------------------| 
E|---x---x-x-----5-5---5-5-5-5-5---------------------------------------------------------------------------| 

   saying so when you're not here it's got to  
e|-----x-x-x----x-x-x-x-x-x-x-x-x-x-x-x-x-x-x--------------------------------------------------------------| 
B|-----x-x-x----x-x-x-x-x-x-x-x-x-x-x-x-x-x-x--------------------------------------------------------------| 
G|-----9-9-9----9-9-9-9-9-9-9-9-9-9-9-9-9-9-9--------------------------------------------------------------| 
D|-----7-7-7----6-6-6-7-7-7-7-7-9-9-9-7-7-6-6--------------------------------------------------------------| 
A|-----7-7-7----7-7-7-7-7-7-7-7-7-7-7-7-7-7-7--------------------------------------------------------------| 
E|-----5-5-5----x-x-x-x-x-x-x-x-x-x-x-x-x-x-x--------------------------------------------------------------| 

    go    and it's leaving me  
e|--x-x--x-x-x-x--x-x-x-x--x-x--x-x-x-x--------------------------------------------------------------------| 
B|--x-x--x-x-x-x--x-x-x-x--x-x--x-x-x-x--------------------------------------------------------------------| 
G|--9-9--9-9-9-9--9-9-9-9--9-9--9-9-9-9--------------------------------------------------------------------| 
D|--7-7--7-7-7-7--7-7-7-7--7-7--7-7-7-7--------------------------------------------------------------------| 
A|--9-9--9-9-9-9--9-9-9-9--5-5--5-5-5-5--------------------------------------------------------------------| 
E|--x-x--x-x-x-x--x-x-x-x--x-x--x-x-x-x--------------------------------------------------------------------| 

         but I  hope that you're     
e|---x---x-x-----x-x---x-x-x-x-x---------------------------------------------------------------------------| 
B|---x---x-x-----x-x---x-x-x-x-x---------------------------------------------------------------------------| 
G|---9---9-9-----9-9---9-9-9-9-9---------------------------------------------------------------------------| 
D|---7---7-7-----7-7---7-7-7-7-7---------------------------------------------------------------------------| 
A|---5---5-5-----7-7---7-7-7-7-7---------------------------------------------------------------------------| 
E|---x---x-x-----5-5---5-5-5-5-5---------------------------------------------------------------------------| 

      ok,       even though I'm dying    
e|-----x-x-x----x-x-x-x-x-x-x-x-x-x-x-x-x-x-x--------------------------------------------------------------| 
B|-----x-x-x----x-x-x-x-x-x-x-x-x-x-x-x-x-x-x--------------------------------------------------------------| 
G|-----9-9-9----9-9-9-9-9-9-9-9-9-9-9-9-9-9-9--------------------------------------------------------------| 
D|-----7-7-7----6-6-6-6-6-6-6-6-6-6-6-6-6-6-6--------------------------------------------------------------| 
A|-----7-7-7----7-7-7-7-7-7-7-7-7-7-7-7-7-7-7--------------------------------------------------------------| 
E|-----5-5-5----x-x-x-x-x-x-x-x-x-x-x-x-x-x-x--------------------------------------------------------------| 
                p.m............ 

Bridge 

         I hope that you're still trying    to have a killer time 
e|----x-x-x--x-x-x-x--x-x-x--x-x-x-x---x-x-x--x-x-x-x--x-x-x--x-x-x-x--------------------------------------| 
B|----x-x-x--x-x-x-x--x-x-x--x-x-x-x---x-x-x--x-x-x-x--x-x-x--x-x-x-x--------------------------------------| 
G|----6-7-6--6-6-6-6--6-7-6--6-6-6-6---6-7-6--6-6-6-6--6-7-6--6-6-6-6--------------------------------------| 
D|----x-x-x--x-x-x-x--7-7-7--7-7-7-7---7-7-7--7-7-7-7--7-7-7--7-7-7-7--------------------------------------| 
A|----7-7-7--7-7-7-7--x-x-x--x-x-x-x---5-5-5--5-5-5-5--5-5-5--5-5-5-5--------------------------------------| 
E|----5-5-5--5-5-5-5--7-7-7--7-7-7-7---x-x-x--x-x-x-x--x-x-x--x-x-x-x--------------------------------------| 

  Go see the volcanoes go see the rainforests  I'll be fine by myself, yeah I'll be fine without these bones 
e|----x-x-x--x-x-x-x--x-x-x--x-x-x-x------------x-x-x--x-x-x-x--x-x-x--x-x-x-x-----------------------------| 
B|----x-x-x--x-x-x-x--x-x-x--x-x-x-x------------x-x-x--x-x-x-x--x-x-x--x-x-x-x-----------------------------| 
G|----6-7-6--6-6-6-6--6-7-6--6-6-6-6------------6-7-6--6-6-6-6--6-7-6--6-6-6-6-----------------------------| 
D|----x-x-x--x-x-x-x--7-7-7--7-7-7-7------------7-7-7--7-7-7-7--7-7-7--7-7-7-7-----------------------------| 
A|----7-7-7--7-7-7-7--x-x-x--x-x-x-x------------5-5-5--5-5-5-5--5-5-5--5-5-5-5-----------------------------| 
E|----5-5-5--5-5-5-5--7-7-7--7-7-7-7------------x-x-x--x-x-x-x--x-x-x--x-x-x-x-----------------------------| 


Chorus 


        Whoa,       hey       what can I do           My lungs are breathing open  
e|----x-x-------x-x------x-x------x-x------------x-x---------------x-x-------------------------------------| 
B|----x-x-------x-x------x-x------x-x------------x-x---------------x-x-------------------------------------| 
G|----9-9-------9-9------9-9------9-9------------9-9---------------9-9-------------------------------------| 
D|----7-7-------7-7------7-7------6-6------------7-7---------------7-7-------------------------------------| 
A|----7-7-------5-5------9-9------7-7------------7-7---------------5-5-------------------------------------| 
E|----5-5-------x-x------x-x------x-x------------5-5---------------x-x-------------------------------------| 

     air, my spleen is dripping from my pants. Whoa,      hey      what can I do 
e|----x-x--------------x-x---------------x-x------x-x-------x-x-------x-x----------------------------------| 
B|----x-x--------------x-x---------------x-x------x-x-------x-x-------x-x----------------------------------| 
G|----9-9--------------9-9---------------9-9------9-9-------9-9-------9-9----------------------------------| 
D|----7-7--------------6-6---------------7-7------7-7-------7-7-------6-6----------------------------------| 
A|----9-9--------------7-7---------------7-7------5-5-------9-9-------7-7----------------------------------| 
E|----x-x--------------x-x---------------5-5------x-x-------x-x-------x-x----------------------------------| 

         you left me in the cold and I miss you 
e|----x-x----------- -x-x------x-x------x-x-x-x------------------------------------------------------------| 
B|----x-x-------------x-x------x-x------x-x-x-x------------------------------------------------------------| 
G|----9-9-------------9-9------9-9------9-9-9-9------------------------------------------------------------| 
D|----7-7-------------7-7------7-7------6-6-6-6------------------------------------------------------------| 
A|----7-7-------------5-5------9-9------7-7-7-7------------------------------------------------------------| 
E|----5-5-------------x-x------x-x------x-x-x-x------------------------------------------------------------| 


Outro 

                          Hey                  Miss you 
e|----x-x--x-x-x----x-x--x-x-x----x-x--x-x-x----x-x--x-x-x-------------------------------------------------| 
B|----x-x--x-x-x----x-x--x-x-x----x-x--x-x-x----x-x--x-x-x-------------------------------------------------| 
G|----9-9--9-9-9----9-9--9-9-9----9-9--9-9-9----9-9--9-9-9-------------------------------------------------| 
D|----7-7--7-7-7----7-7--7-7-7----7-7--7-7-7----6-6--6-6-6-------------------------------------------------| 
A|----7-7--7-7-7----5-5--5-5-5----9-9--9-9-9----7-7--7-7-7-------------------------------------------------| 
E|----5-5--5-5-5----x-x--x-x-x----x-x--x-x-x----x-x--x-x-x-------------------------------------------------| 


                          Hey                           Miss you  
e|----x-x--x-x-x----x-x--x-x-x----x-x--x-x-x----x-x--x-x-x--------x---------------------------------------| 
B|----x-x--x-x-x----x-x--x-x-x----x-x--x-x-x----x-x--x-x-x--------x---------------------------------------| 
G|----9-9--9-9-9----9-9--9-9-9----9-9--9-9-9----9-9--9-9-9--------9---------------------------------------| 
D|----7-7--7-7-7----7-7--7-7-7----7-7--7-7-7----6-6--6-6-6--------7---------------------------------------| 
A|----7-7--7-7-7----5-5--5-5-5----9-9--9-9-9----7-7--7-7-7--------7---------------------------------------| 
E|----5-5--5-5-5----x-x--x-x-x----x-x--x-x-x----x-x--x-x-x--------5---------------------------------------| 





************************************ 

| /   slide up 
| \   slide down 
| h   hammer-on 
| p   pull-off 
| ~   vibrato 
| +   harmonic 
| x   Mute note 
| b   Bend 
| pb  Pre-bend 
| br  Bend release 
| pbr Pre-bend release 
| brb Bend release bend 
| p.m Palm mute 

************************************ 

2014  Ultimate Guitar 
		  

See also:

tabs Red Hot Chili Peppers - I Could Have Lied tabs Ben Harper - Diamonds on inside tabs Red Hot Chili Peppers - By The Way (ver. 2) tabs Audioslave - Show Me How To Live tabs Incubus - 11 A.M. tabs Red Hot Chili Peppers - Scar Tissue
e-chords

Other versions:

tabs Say Anything - You Vandal
auto scroll beats size up size down change color hide chords drawings
tab show chords e-chords YouTube Clip e-chords hide all tabs e-chords go to top tab

share