Say Anything

Wow, I can get sexual too!

Say Anything

tabs

by  LIL_MAYAN

save to print version add songbook text version e-mail correct tuner
chordsukulelecavacokeyboardtabbassdrumsharmonicaflute Guitar Pro
close

there isn't a video lesson for this song

chords

Wow, I can get sexual too!

	  		The verse may not be completely right, 
if you know the right verse tabs, you can correct them 

VERSE: (meant for keyboard) 
E-0-0------------- 
B------------------ 
G-----------------       8x's 
D-3-2-------------- 
A-3-3-------------- 
E------------------ 

E----------------------------------------    
B--13---12---13---12---13---12---13---15- 
G-----12--12----12---12---12---12--------   2x's 
D---------------------------------------- 
A---------------------------------------- 
E---------------------------------------- 

E------------------------------------------------ 
B-10--10--12--12---13--13--13-------------------- 
G---12--12--12--12---12--12--12------------------ 
D------------------------------------------------ 
A------------------------------------------------ 
E------------------------------------------------ 


		  

See also:

tabs Red Hot Chili Peppers - I Could Have Lied tabs Ben Harper - Diamonds on inside tabs Red Hot Chili Peppers - By The Way (ver. 2) tabs Audioslave - Show Me How To Live tabs Incubus - 11 A.M. tabs Red Hot Chili Peppers - Scar Tissue
e-chords

Other versions:

tabs Say Anything - Wow, I can get sexual too!
auto scroll beats size up size down change color hide chords drawings
tab show chords e-chords YouTube Clip e-chords hide all tabs e-chords go to top tab

share