Say Anything

Try To Remember Forget (acoustic)

Say Anything

tabs

by  EDSOOLIVEIRA

save to print version add songbook text version e-mail correct tuner
chordsukulelecavacokeyboardtabbassdrumsharmonicaflute Guitar Pro
close

there isn't a video lesson for this song

chords

Try To Remember Forget (acoustic)

	  		

Intro 
|-------------------------------| 
|-------------------------------| 
|-------------------------------| 
|---------9-6~----------9~------| 
|--7/9/7--7-7~---7/9/7--7~------| 
|-----------------------5~------| X2 

Verse 
|----------------| 
|----------------| 
|-9--9---6-------| 
|-9--9---7-------| 
|-7--6---7-------| 
|--------5-------| 

Chorus 
|-----------|-------------------| 
|-----------|-------------------| 
|-9--8--8---|-------------------| 
|-7--9--9---|-9~----9--9--------| 
|-9--x--x---|-7~----7--6--------| 
|----9--7---|-5~----5--7--------| 
          x3 
Interlude 
|---------------| 
|---------------| 
|---------------| 
|-9--9----------| 
|-7--6----------| 
|-5--7----------| 

Outro 
|---------------| 
|---------------| 
|---------------| 
|--------9-6~---| 
|-7/9/7--7-7~---| 
|---------------| 

Order: 
Intro 
verse x2 
Chorus 
verse X4 
Chorus 
Interlude x6 
verse x2 
Chorus 
Outro 


NOTE: Bemis is strumming the B and e strings open during most of the song, I didn't note 
that because it looked messy, but here's a head's up 
		  

Full key step upFull key step up
Half key step upHalf key step up
Half key step downHalf key step down
Full key step downFull key step down
hide glossary

See also:

tabs Red Hot Chili Peppers - I Could Have Lied tabs Ben Harper - Diamonds on inside tabs Red Hot Chili Peppers - By The Way (ver. 2) tabs Audioslave - Show Me How To Live tabs Incubus - 11 A.M. tabs Red Hot Chili Peppers - Scar Tissue
e-chords

Other versions:

tabs Say Anything - Try To Remember Forget (acoustic)
auto scroll beats size up size down change color hide chords drawings
tab show chords e-chords YouTube Clip e-chords hide all tabs e-chords go to top tab

share