Say Anything

I Will Never Write An Obligatory Song About Being On The Road And Missing Someone

Say Anything

tabs

by  ADALGOMES

save to print version add songbook text version e-mail correct tuner
chordsukulelecavacokeyboardtabbassdrumsharmonicaflute Guitar Pro
close

there isn't a video lesson for this song

chords

I Will Never Write An Obligatory Song About Being On The Road And Missing Someone

	  		
Intro 

Guitar 1:  
                      x3  
e||-----------------------||---------------------------------------------| 
B||-----------------------||---------------------------------------------| 
G||-----------------------||---------------------------------------------| 
D||----7-7-7---2----------||--7-7-7--2---7--7--7--2---7--7--7--2--2--2---| 
A||----7-7-7---2----------||--7-7-7--2---7--7--7--2---7--7--7--2--2--2---| 
E||----5-5-5---0----------||--5-5-5--0---5--5--5--0---5--5--5--0--0--0---| 

Guitar 2:  

e|------------------------| 
B|------------------------| 
G|------------------------| 
D|-------------5h6--------| x3 
A|-----------------7------| 
E|----------(0)-----------| 
              

Verse 

Guitar 1 & 2:  

               x3 
e||-------(0)---||-----------------------------------| 
B||-------(0)---||-----------------------------------| 
G||-------------||-----------------------------------| 
D||----9-9------||----9-9---7-7-7--7-7--6-6-6--2-2-2-| 
A||----7-7------||----9-9---5-5-5--5-5--5-5-5--2-2-2-| repeat  
E||----5-5------||----7-7---2-2-2--2-2--2-2-2--0-0-0-| 
  "Take this pen..."      

   
 Guitar 1 & 2:  
  
               x3  
e||-------(0)---||--------------------------------------------------------------| 
B||-------(0)---||--------------------------------------------------------------| 
G||-------------||--------------------------------------------------------------| 
D||----9-9------||----9-9---4-4-4--4-4---7-7-7--7-7-----------------------------| 
A||----7-7------||----9-9---4-4-4--4-4---7-7-7--7-7-----------------------------| 
E||----5-5------||----7-7---2-2-2--2-2---5-5-5--5-5-----------------------------| 
   "My box is full..."  


Chorus 

Guitar 1 & 2:  

e|------------------------------------------| 
B|------------------------------------------| 
G|------------------------------*7*----7----| repeat  
D|----5h6------5h6------5h6---------------6-|  
A|--------7--------7---------7------7-------| 
E|--(0)-------------------------------------| 
"I want my baby back..." 


e|------------------------------------------| 
B|------------------------------------------| 
G|------------------------------*7*----7----|  
D|----5h6------5h6------5h6---------------6-|  
A|--------7--------7---------7------7-------| 
E|------------------------------------------| 

Guitar 1 & 2: 

e|-----------------------------------------------------------------| 
B|-------------------7------5--------------------------------------| 
G|----------5h6----6-----------------6p0--------5h6-7p6------------| 
D|---6-6h7-------7------7-------7------------6h7-------------------| 
A|-----------------------------------------------------------------| 
E|-----------------------------------------------------------------| 
 "I miss you..." 

  
Guitar 1 & 2:  

e|------------------------------------------| 
B|------------------------------------------| 
G|------------------------------*7*----7----| repeat  
D|----5h6------5h6------5h6---------------6-|  
A|--------7--------7---------7------7-------| 
E|--(0)-------------------------------------| 
"I want my baby back..." 


e|------------------------------------------| 
B|------------------------------------------| 
G|------------------------------*7*----7----|  
D|----5h6------5h6------5h6---------------6-|  
A|--------7--------7---------7------7-------| 
E|------------------------------------------| 
"I want my baby back..." 


Guitar 1 & 2: 

e|------------------------------| 
B|------------------------------| 
G|--------5h6-----5h6-----------| 
D|----6h7-----6h7---------------| 
A|------------------------------| 
E|------------------------------| 
"... miss your kiss, I miss you." 


Bridge 

Guitar 1:   

e|---------------------------------------------------------------------------| 
B|---------------------------------------------------------------------------| 
G|---------------------------------------------------------------------------| 
D|--11---9---7---6---2---4---2----x--x--x------------------------------------| 
A|--11---9---7---6---2---4---2----x--x--x------------------------------------| 
E|--9----7---5---4---0---2---0----x--x--x------------------------------------| 


Guitar 2: 

e|---------------------------------------------------------------------------| 
B|---------------------------------------------------------------------------| 
G|----8h9-----9-----8h9-(9)----9---------------------------------------------| 
D|---------9-----9----------9------------------------------------------------| 
A|---------------------------------------------------------------------------| 
E|---------------------------------------------------------------------------| 



************************************ 

| x    Dead note 
| (n)  Ghost note 
| h    Hammer-on 
| p    Pull-off 
| *    Bend slightly 

************************************ 
		  

See also:

tabs Red Hot Chili Peppers - I Could Have Lied tabs Ben Harper - Diamonds on inside tabs Red Hot Chili Peppers - By The Way (ver. 2) tabs Audioslave - Show Me How To Live tabs Incubus - 11 A.M. tabs Red Hot Chili Peppers - Scar Tissue
e-chords

Other versions:

tabs Say Anything - I Will Never Write An Obligatory Song About Being On The Road And Missing Someone
auto scroll beats size up size down change color hide chords drawings
tab show chords e-chords YouTube Clip e-chords hide all tabs e-chords go to top tab

share