Savoy Brown

Louisiana Blues

Savoy Brown

tabs nolevel nolevel

by  ANG-LETRA

save to print version add songbook text version e-mail correct tuner
chordsukulelecavacokeyboardtabbassdrumsharmonicaflute Guitar Pro
close

there isn't a video lesson for this song

chords

Louisiana Blues

	  		
b=bend 
p=pull off 
/=slide up 



e|--------------------------|--------------------------| 
B|-------3-----5-----3b4----|-------3-----5-----3b4----| 
G|----0--3--0--5--0--3b4p0--|----0--3--0--5--0--3b4p0--| 
D|--------------------------|--------------------------| 
A|--------------------------|--------------------------| 
E|--------------------------|--------------------------| 



e|--------------------------|-------3----1-------------| 
B|-------3-----5-----3b4----|--------------------------| 
G|----0--3--0--5--0--3b4p0--|--3/4---------------------| 
D|--------------------------|--------------------------| 
A|--------------------------|--------------------------| 
E|--------------------------|--------------------------| 


   2x               |--3-|                     |--3-| 
e||--------------------------|--------------------------| 
B||--------------------------|--------------------------| 
G||--------------------------|--------------------------| 
D||------------5-5--7-5------|------------5-5--7-5------| 
A||--3-3--7-7-----------7----|--3-3--7-7-----------7----| 
E||--------------------------|--------------------------| 



e|--------------------------|--------------------------| 
B|-------3-----5-----3b4----|-------3-----5-----3b4----| 
G|--0-0--3--0--5--0--3b4p0--|----0--3--0--5--0--3b4p0--| 
D|--------------------------|--------------------------| 
A|--------------------------|--------------------------| 
E|--------------------------|--------------------------| 



e|--------------------------|-------3----1-------------|| 
B|-------3-----5-----3b4----|--------------------------|| 
G|----0--3--0--5--0--3b4p0--|--3/4---------------------|| 
D|--------------------------|--------------------------|| 
A|--------------------------|--------------------------|| 
E|--------------------------|--------------------------|| 



e|--------------------------|--------------------------| 
B|---------------4----------|----5--5--5--3-----3------| 
G|--5--5------5-----5-------|----5--5--5--3-----3------| 
D|--------------------------|--------------------------| 
A|--------------------------|--------------------------| 
E|--------------------------|--------------------------| 


e|--------------------------|--------------------------| 
B|-------3-----5-----3b4----|-------3-----5-----3b4----| 
G|--0-0--3--0--5--0--3b4p0--|----0--3--0--5--0--3b4p0--| 
D|--------------------------|--------------------------| 
A|--------------------------|--------------------------| 
E|--------------------------|--------------------------| 


                                              drum break 
e|--------------------------|-------3----1-------------| 
B|-------3-----5-----3b4----|--------------------------| 
G|----0--3--0--5--0--3b4p0--|--3/4---------------------| 
D|--------------------------|--------------------------| 
A|--------------------------|--------------------------| 
E|--------------------------|--------------------------| 


   Bb/C                           C       Bb 

e|-6/8--8--8--8--8--8--8--8-|-----8--8--8--6-----6-----| 
B|-6/8--8--8--8--8--8--8--8-|-----8--8--8--6-----6-----| 
G|-7/9--9--9--9--9--9--9--9-|-----9--9--9--7-----7-----| 
D|-8/10-10-10-10-10-10-10-10|-----10-10-10-8-----8-----| 
A|-8/10-10-10-10-10-10-10-10|-----10-10-10-8-----8-----| 
E|-6/8--8--8--8--8--8--8--8-|-----8--8--8--6-----6-----| 



e|--------------------------|--------------------------| 
B|-------3-----5-----3b4----|-------3-----5-----3b4----| 
G|--0-0--3--0--5--0--3b4p0--|----0--3--0--5--0--3b4p0--| 
D|--------------------------|--------------------------| 
A|--------------------------|--------------------------| 
E|--------------------------|--------------------------| 



e|--------------------------|-------3--1---------------| 
B|-------3-----5-----3b4----|--------------------------| 
G|----0--3--0--5--0--3b4p0--|--3/4---------------------| 
D|--------------------------|--------------------------| 
A|--------------------------|--------------------------| 
E|--------------------------|--------------------------| 


If you can memorise the riffs it becomes pretty easy to play through most of the song  

My first attempt at tablature, thanks for getting as far as the bottom of the page 
		  

Full key step upFull key step up
Half key step upHalf key step up
Half key step downHalf key step down
Full key step downFull key step down
hide glossary

See also:

tabs Savoy Brown - Louisiana Blues tabs Jane's Addiction - Just Because
e-chords

Other versions:

tabs Muddy Waters - Louisiana Blues tabs Savoy Brown - Louisiana Blues
auto scroll beats size up size down change color hide chords drawings
tab show chords e-chords YouTube Clip e-chords hide all tabs e-chords go to top tab

share with facebook