Savage Messiah

The Fateful Dark

Savage Messiah

tabs

by  PAULANTUNES

save to print version add songbook text version e-mail correct tuner
chordsukulelecavacokeyboardtabbassdrumsharmonicaflute Guitar Pro
close

there isn't a video lesson for this song

chords

The Fateful Dark

	  		
Intro:                                      

|-------------------    x4 
|------------------- 
|------------------- 
|------------------- 
|--------------0~--- 
|--0--0--0--0--0~--- 

Riff 1(i): 

|--------------------------------------------------------------------------   x3 
|-------------------------------------------------------------------------- 
|--------------9--8-------------------------------------------------------- 
|--------------------------9--10--------9--8--------------------------8---- 
|---------------------------------------------------5--6--------6--6------- 
|--0--0--0--0--------0--0---------0--0--------0--0--------0--0------------- 

Riff 1(ii): 

E|---------------------------------------------------------------------------- 
B|---------------------------------------------------------------------------- 
G|--------------9--8---------------------------------------------------------- 
D|--------------------------9--10--------9--8--------------------------------- 
A|---------------------------------------------------5------------------------ 
D|--0--0--0--0--------0--0---------0--0--------0--0-----1----1----1--1--1--1-- 


Riff 2: 

|----------------------------------------------------------------------  x3 
|---------------------------------------------------------------------- 
|---------------------------------------------------------------------- 
|--------------------------------------------8\7----------------------- 
|--1--------1--0-----0-----0--1--------1--0--6\5--5/6--3--0--3/6------- 
|--1--0--0--1--0--0--0--0--0--1--0--0--1--0-------5/6--3--0--3/6------- 

pause 
|------------------------------------------------------------------  x1 
|------------------------------------------------------------------ 
|------------------------------------------------------------------ 
|---------------------------------------------8\7------------------ 
|------------1--0-----0-----0--1--------1--0--6\5--5/6--3--0--3/6-- 
|------------1--0--0--0--0--0--1--0--0--1--0-------5/6--3--0--3/6-- 


Verse: 

|----------------------------------------------------------- 
|----------------------------------------------------------- 
|----------------------------------------------------------- 
|----------------------------------------------------------- 
|--0~------------------------------------------------------- 
|--0~------------------------------------0---0---0--0--0?0-- 






Pre Chorus: 

|------------------------------------------------------------------------------- 
|------------------------------------------------------------------------------- 
|----------------------7----10----5/7\5----5/7--3------------------------------- 
|------------------------------------------------------------------------------- 
|--7~------------------5----8-----3/5\3----3/5--1------------------------------- 
|--7~-------------------------------------------------------1---1---1--1--1--1-- 

Chorus: 

|-------------------------------------------------------------- 
|-------------------------------------------------------------- 
|-------------------------------------------------------------- 
|----------3------------5-------------3------------------------ 
|--0-------1----3-------3-----0-------1------3-------1--------- 
|--0---0--------3---0---------0---0----------3-------1--------- 

Bridge: 

E|----------------------------------------------------------------------------------  x4 
B|---------------------------------------------------------------------------------- 
G|---------------------------------------------------------------------------------- 
D|---------------------------------------------------------------------------------- 
A|-----------------------------------------------------------------------------1---- 
D|--1p0---000--000--000--000--000--000--000--000--000--000--000--000--000--0---1---- 






Bridge 2: 

|-------------------------------------- 
|-------------------------------------- 
|--7--------6---------7----9-----10---- 
|-------------------------------------- 
|--5--------4---------5----7-----8----- 
|-------------------------------------- 

Duel guitar melody:                                                                      x2       2nd time end 

|----------------------------------------------17----------------------------------------------------------- 
|-------15--14?15p14p12---------------15--14-------------------15?14--15p14p12------------12b14r----15b17r-- 
|------------------------14--13--14----------------14--13------------------------14--13--------------------- 
|----------------------------------------------------------16----------------------------------------------- 
|--4-------------------------------------------------------------------------------------------------------- 
|--4-------------------------------------------------------------------------------------------------------- 

Post melody riff:                                     x2                        2nd time end 
                                                                
E|--------------------------------------------------------------------------------------------------------- 
B|--------------------------------------------------------------------------------------------------------- 
G|----------------------------------------------------------------------10--------------------------------- 
D|--------------------------------------------------------------------------------------------------------- 
A|--2--3--------2--3-----------------2--3--------2--3-------------------8---3-3-3-3-3-3-3-3-7-7-7-7-7-7-7h8 
D|--2--3--0--0--2--3--000--000--000--2--3--0--0--2--3--000--000?000--0------------------------------------- 
		  

See also:

tabs Savage Messiah - In Thought Alone tabs Savage Messiah - The Fateful Dark tabs Savage Messiah - The Accuser tabs Savage Messiah - Carnival Of Souls tabs Alien Ant Farm - Smooth criminal tabs Alien Ant Farm - Whisper
e-chords

Other versions:

tabs Savage Messiah - The Fateful Dark
auto scroll beats size up size down change color hide chords drawings
tab show chords e-chords YouTube Clip e-chords hide all tabs e-chords go to top tab

share