Satellite Stories

Helsinki Art Scene

Satellite Stories

tabs Expert expert

by  ALYSLIMA

save to print version add songbook text version e-mail correct tuner
chordsukulelecavacokeyboardtabbassdrumsharmonicaflute Guitar Pro
close

there isn't a video lesson for this song

chords

Helsinki Art Scene

	  		



Intro (Guitar 1) 

|----12-12-12-12----------12-12-12-12------------| 
|-----------------14--12---------------14----9---| 
|------------------------------------------------| 
|------------------------------------------------| 
|------------------------------------------------| 
|------------------------------------------------| 

Chorus /w Guitar 1 

|--7---5--2--9| 
|--7---5--2--9| 
|--7---6--2--9| 
|--7---7--4--9| 
|--5---7--4--7| 
|------5--2---| 

Verse (Guitar 1) 

|-----12-----------------12------------9-------4--| 
|-10------10---10---10-------10--10---10---7---5--| 
|-------------------------------------------------| 
|-------------------------------------------------| 
|-------------------------------------------------| 
|-------------------------------------------------| 

|-----12-----------------12------------9-------12-| 
|-10------10---10---10-------10--10---10---14--9--| 
|-------------------------------------------------| 
|-------------------------------------------------| 
|-------------------------------------------------| 
|-------------------------------------------------| 

Verse Part 1 (Over Guitar 1 
*Strum and Let Ring 

|--7-----2--6---------------7---2--7-| 
|--7-----2--5---------------7---2--7-| 
|--7-----2--6---------------7---2--9-| 
|--7-----4--6---------------7---4--9-| 
|--5-----4--4---------------5---4--7-| 
|--------2----------------------2----| 

Verse Part 2 
*Staccato Up 

|--7-----2--6---------------7---2--7-| 
|--7-----2--5---------------7---2--7-| 
|--7-----2--6---------------7---2--9-| 
|--7-----4--6---------------7---4--9-| 
|--5-----4--4---------------5---4--7-| 
|--------2----------------------2----| 

Over Verse Part 2 (Softly) 
|------12----12-----12-----12-------12----12-----12--12---12--12------| 
|--10-----10----10------10------10-----10------9----9---9----9--------| 
|---------------------------------------------------------------------| 
|---------------------------------------------------------------------| 
|---------------------------------------------------------------------| 
|---------------------------------------------------------------------| 

"It Feels So Wrong" 

|--5| 
|--7|*Ring  
|--6|*Add Guitar 1 Intro Part 
|--7| 
|--5| 
|---| 

Chorus 2 (Same as Chorus 1) 
Verse 2 (Same as Verse 1) 
"It Felt So Wrong"  
Chorus 3 (Same as Chorus 1 & 2) 

Breakdown/Bridge  

Guitar 1 (// = Slide Up) 

|-----------------------| 
|--//7-5-2-0---//7-5-2--| 
|-----------------------| 
|-----------------------| 
|-----------------------| 
|-----------------------| 

Guitar 2   


|---------------------------------------------------------------------------| 
|---------------------------------------------------------------------------| 
|---------------------------------------------------------------------------| 
|---------------------------------------------------------------------------| 
|-12--12--12-12--------12--12--12-12-----12--12-12-12------11-11-11-11------| 
|----------------12------------------12---------------12----------------12--| 

|---------------------------------------------------------------------------| 
|---------------------------------------------------------------------------| 
|---------------------------------------------------------------------------| 
|---------------------------------------------------------------------------| 
|-12--12--12-12--------12--12--12-12-----12--12-12-12------11-11-11-11------| 
|----------------12------------------12---------------12--------------------| 

"Huh!"  

|-2-7-5-9-| 
|-3-7-5-9-| 
|-4-7-6-9-| 
|-4-7-7-9-| 
|-2-5-7-7-| 
|-----5---| 

Alt. Chorus (Guitar 2) 

|-2-7-5-9--| 
|-3-7-5-9--| 
|-4-7-6-9--| 
|-4-7-7-9--| 
|-2-5-7-7--| 
|-----5----| 

Guitar 1  

|----12-12-12-12----------12-12-12-12----------| 
|-----------------14--12---------------14----9-| 
|----------------------------------------------| 
|----------------------------------------------| 
|----------------------------------------------| 
|----------------------------------------------| x3 

|----12-12-12-12----------12-12-12-12------------| 
|-----------------14--12---------------14----9//-| 
|------------------------------------------------| 
|------------------------------------------------| 
|------------------------------------------------| 
|------------------------------------------------| 
*When fret 9 is played, the rest of the band is out/notes are ringing 

Chorus 4 (Same as  Chorus 1, 2 & 3)  

|--7---5--2--9| 
|--7---5--2--9| 
|--7---6--2--9| 
|--7---7--4--9| 
|--5---7--4--7| 
|------5--2---| 



 
		  

See also:

tabs Ghost Brigade - In The Woods tabs Satellite Stories - Campfire tabs Ghost Brigade - Cult Of Decay tabs Satellite Stories - Australia Dont Ever Let Her Go (ver. Acoustic) tabs Ghost Brigade - My Heart Is A Tomb (intro) tabs Satellite Stories - Helsinki Art Scene
e-chords

Other versions:

tabs Satellite Stories - Helsinki Art Scene
auto scroll beats size up size down change color hide chords drawings
tab show chords e-chords YouTube Clip e-chords hide all tabs e-chords go to top tab

share