Saron Gas

Gasoline

Saron Gas

tabs

by  RENEJUNIOR

save to print version add songbook text version e-mail correct tuner
chordsukulelecavacokeyboardtabbassdrumsharmonicaflute Guitar Pro
close

there isn't a video lesson for this song

chords

Gasoline

	  		
Intro 

E|--------------------------------------------------------0-0-0--| 
B|--------------------------------------------------------0-0-0--| 
G|--------------------------------------------------------0-0-0--| 
D|----2-2-x-x-x--x--x-x-x--------2-2-x-x--x--x--x----------------| 
A|----2-2-x-x-x--x--x-x-x--------2-2-x-x--x--x--x----------------| 
E|----0-0-x-x-x--x--x-x-x--------0-0-x-x--x--x--x----------------| 


E|-------------------------------------------| 
B|-------------------------------------------| 
G|-----------9-9--7-7-/10-10-----------------| 
D|----2-2-x--7-7--5-5-/8--8------------------| 
A|----2-2-x--7-7--5-5-/8--8------------------| 
E|----0-0-x----------------------------------|(x3) 

E|---------------------------------| 
B|---------------------------------| 
G|------------9-9--7-7-/12-12-12---| 
D|-----2-2-x--7-7--5-5-/10-10-10---| 
A|-----2-2-x--7-7--5-5-/10-10-10---| 
E|-----0-0-x-----------------------| 

Thats all the intro, it's simple and i think it's the same as the Disclaimer vercion,  


verse 1 

"Last night i saw that beauty queen..." 

E|------------------------------------------------------------------| 
B|------------------------------------------------------------------| 
G|--------------------------------------------------------0-3b-2-0--| 
D|----2-2-------------------------------2-2-------------------------| 
A|----2-2-------------------------------2-2-------------------------| 
E|----0-0-------------------------------0-0-------------------------| 

E|-------------------------------------------------------| 
B|-------------------------------------------------------| 
G|-------------------------------------------------------| 
D|----2-2-x-x-x--x--x-x-x--------2-2-x-x-x--x--x-x-x-----| 
A|----2-2-x-x-x--x--x-x-x--------2-2-x-x-x--x--x-x-x-----| 
E|----0-0-x-x-x--x--x-x-x--------0-0-x-x-x--x--x-x-x-----| 

E|--------------------------------------------------0-0-0--| 
B|--------------------------------------------------0-0-0--| 
G|--------------------------------------------------0-0-0--| 
D|----2-2-x-x-x--x--x-x-x--------2-2-x-x--x--x--x----------| 
A|----2-2-x-x-x--x--x-x-x--------2-2-x-x--x--x--x----------| 
E|----0-0-x-x-x--x--x-x-x--------0-0-x-x--x--x--x----------| 

About the mutes, listen to the song to get the strum, i'm sure you will get it 


Chorus 

"She's got nothing to say...." 

E|------------------------------------------------| 
B|------------------------------------------------| 
G|------------5/7--7--7------5--5--5--5-----------|  
D|----2-x-----5/7--7--7--x---5--5--5--5-----------|  
A|----2-x-0---3/5--5--5--x---3--3--3--3-----------| 
E|----0-x-0--------------x---3--3--3--3-----------|(x4) 


Post-Chorus  

(Same as intro): 

E|-------------------------------------------| 
B|-------------------------------------------| 
G|-----------9-9--7-7-/10-10-----------------|  
D|----2-2-x--7-7--5-5-/8--8------------------| 
A|----2-2-x--7-7--5-5-/8--8------------------| 
E|----0-0-x----------------------------------|(x3) 

E|---------------------------------| 
B|---------------------------------| 
G|------------9-9--7-7-/12-12-12---| 
D|-----2-2-x--7-7--5-5-/10-10-10---| 
A|-----2-2-x--7-7--5-5-/10-10-10---| 
E|-----0-0-x-----------------------| 


verse 2 

"Last night i saw that beauty queen..." 

E|------------------------------------------------------------------| 
B|------------------------------------------------------------------| 
G|--------------------------------------------------------0-3b-2-0--| 
D|----2-2-------------------------------2-2-------------------------| 
A|----2-2-------------------------------2-2-------------------------| 
E|----0-0-------------------------------0-0-------------------------| 

E|-------------------------------------------------------| 
B|-------------------------------------------------------| 
G|-------------------------------------------------------| 
D|----2-2-x-x-x--x--x-x-x--------2-2-x-x-x--x--x-x-x-----| 
A|----2-2-x-x-x--x--x-x-x--------2-2-x-x-x--x--x-x-x-----| 
E|----0-0-x-x-x--x--x-x-x--------0-0-x-x-x--x--x-x-x-----| 

E|--------------------------------------------------0-0-0--| 
B|--------------------------------------------------0-0-0--| 
G|--------------------------------------------------0-0-0--| 
D|----2-2-x-x-x--x--x-x-x--------2-2-x-x--x--x--x----------| 
A|----2-2-x-x-x--x--x-x-x--------2-2-x-x--x--x--x----------| 
E|----0-0-x-x-x--x--x-x-x--------0-0-x-x--x--x--x----------| 


Chorus, Again: 

"She's got nothing to say...." 

E|------------------------------------------------| 
B|------------------------------------------------| 
G|------------5/7--7--7------5--5--5--5-----------|  
D|----2-x-----5/7--7--7--x---5--5--5--5-----------|  
A|----2-x-0---3/5--5--5--x---3--3--3--3-----------| 
E|----0-x-0--------------x---3--3--3--3-----------|(x4) 


Bridge 

"ME!!!!" 

E|-----------------------------------------| 
B|-----------------------------------------| 
G|-----------------------------------------| 
D|----2-x-0-7\6--6-6\5--5-5\4-4\3-3\2------| 
A|----2-x-0-5\4--4-4\3--3-3\2-2\1-1\0------| 
E|----0-x-0-5\4--4-4\3--3-3\2-2\1-1\0------|(x4) 

"When i saw that beauty queen...." 

E|------------------------------------------| 
B|------------------------------------------| 
G|-------------9-9-9-9-7-7-7-7-10-10-10-10--| 
D|-----7-7-7-7------------------------------|  
A|------------------------------------------| 
E|------------------------------------------|(x4) 

^This part i think is with a tremolo pedal, that's why it sounds like that, but anyway, does not  
really matter lol 


"Wanna waste her monthly blood...." 

E|---------------------------------------------------------------| 
B|---------------------------------------------------------------| 
G|--0-3b-2-0-----------------------------------------------------| 
D|------------2-2-x-x-x--x--x-x-x--------2-2-x-x-x--x--x-x-x-----| 
A|------------2-2-x-x-x--x--x-x-x--------2-2-x-x-x--x--x-x-x-----| 
E|------------0-0-x-x-x--x--x-x-x--------0-0-x-x-x--x--x-x-x-----| 

E|--------------------------------------------------0-0-0--| 
B|--------------------------------------------------0-0-0--| 
G|--------------------------------------------------0-0-0--| 
D|----2-2-x-x-x--x--x-x-x--------2-2-x-x--x--x--x----------| 
A|----2-2-x-x-x--x--x-x-x--------2-2-x-x--x--x--x----------| 
E|----0-0-x-x-x--x--x-x-x--------0-0-x-x--x--x--x----------| 


Outro/Final Chorus 


"She's got nothing to say...." 

Guitar 1: 

E|------------------------------------------------| 
B|------------------------------------------------| 
G|------------5/7--7--7------5--5--5--5-----------|  
D|----2-x-----5/7--7--7--x---5--5--5--5-----------|  
A|----2-x-0---3/5--5--5--x---3--3--3--3-----------| 
E|----0-x-0--------------x---3--3--3--3-----------|(x12) 


Guitar 2: 

E|-------------------------------------------------| 
B|-------------------------------------------------| 
G|--\12-12-12-12/11-11-11-11/9-9-9-9/7-7-7-7-------| 
D|---x--x--x--x--x--x--x--x--x-x-x-x-x-x-x-x-------|  
A|--\10-10-10-10/9--9--9--9-/7-7-7-7/5-5-5-5-------| 
E|-------------------------------------------------|(x3) 


E|------------------------------| 
B|------------------------------| 
G|--/9-9-9-9/7-7-7-7-x-7-7-7-7--| 
D|---x-x-x-x-x-x-x-x-x-x-x-x-x--| 
A|--/7-7-7-7/5-5-5-5-x-5-5-5-5--| 
E|------------------------------| 

E|-------------------------------------------------| 
B|-------------------------------------------------| 
G|--\12-12-12-12/11-11-11-11/9-9-9-9/7-7-7-7-------| 
D|---x--x--x--x--x--x--x--x--x-x-x-x-x-x-x-x-------| x3 
A|--\10-10-10-10/9--9--9--9-/7-7-7-7/5-5-5-5-------| 
E|-------------------------------------------------| 


E|------------------------------| 
B|------------------------------| 
G|--/9-9-9-9/7-7-7-7-x-7-7-7-7--| 
D|---x-x-x-x-x-x-x-x-x-x-x-x-x--| 
A|--/7-7-7-7/5-5-5-5-x-5-5-5-5--| 
E|------------------------------| 

E|-------------------------------------------------| 
B|-------------------------------------------------| 
G|--\12-12-12-12/11-11-11-11/9-9-9-9/7-7-7-7-------| 
D|---x--x--x--x--x--x--x--x--x-x-x-x-x-x-x-x-------| 
A|--\10-10-10-10/9--9--9--9-/7-7-7-7/5-5-5-5-------| 
E|-------------------------------------------------|(x3) 


E|------------------------------| 
B|------------------------------| 
G|--/9-9-9-9/7-7-7-7-x-7-7-7-7--| 
D|---x-x-x-x-x-x-x-x-x-x-x-x-x--| 
A|--/7-7-7-7/5-5-5-5-x-5-5-5-5--| 
E|------------------------------| 


************************************ 

| x  Dead note 
| b  Bend 
| /  Slide up 
| \  Slide down 

************************************ 
		  

See also:

tabs Ira! - Envelheço Na Cidade(Solo - Acustivo Mtv) tabs Deep Purple - No No No tabs Deep Purple - Black Night tabs Deep Purple - Smoke on the water(ver. 2) tabs Deep Purple - Since Youve Been Gone tabs Albert Hammond Jr - In My Room
e-chords

Other versions:

tabs Audioslave - Gasoline tabs Seether - Gasoline tabs Kicking Harold - Gasoline tabs Saron Gas - Gasoline tabs Skillet - Gasoline
auto scroll beats size up size down change color hide chords drawings
tab show chords e-chords YouTube Clip e-chords hide all tabs e-chords go to top tab

share