Santana

home > Santana

You Are My Kind Tab

Santana

Difficulty: AdvancedAdvanced

by Xafuldiformio

tuner correct add songbook print version text version save to e-mail
chordsukulelecavacokeyboardtabbassdrumsharmonicsflute Guitar Pro
chords

You Are My Kind

Year: 2002 - Album: Shaman

  		Chords: Am-Dm-G-C-Em7/Am 
------- 
 
Intro: 
------ 
 
e----------------/--------------------/-----------------/-------7--8p7--5---- 
b----------------/--------------------/-------------8-8-/-5--8--------------- 
g-9-7-9--7-9-7-9-/--7-5-7--5-7-5----5-/-7-5-7--5-7------/-------------------- 
d----------------/7---------------7---/-----------------/-------------------- 
a----------------/--------------------/-----------------/-------------------- 
e----------------/--------------------/-----------------/-------------------- 
 
e---5-7--8-8-10-10---12-10-12--10-12-10-12-----10-8-10--8-10-8----10-8-10---- 
b-8-----------------------------------------10-----------------10------------ 
g---------------------------------------------------------------------------- 
d---------------------------------------------------------------------------- 
a---------------------------------------------------------------------------- 
e---------------------------------------------------------------------------- 
 
e-8-10--15-12-15----17b---17b---17b--15-13----------------------------------- 
b-------------------15b---15b---15b---------15b-13-12-13---15---------------- 
g---------------------------------------------------------------------------- 
d---------------------------------------------------------------------------- 
a---------------------------------------------------------------------------- 
e---------------------------------------------------------------------------- 
 
1st verse: 
---------- 
 
Stay with me baby 
 
e---------------------------------------------------------------------------- 
b---------------5------------------------------------------------------------ 
g-7/9--7-5-7--5------5------------------------------------------------------- 
d------------------7--------------------------------------------------------- 
a---------------------------------------------------------------------------- 
e---------------------------------------------------------------------------- 
 
and that's all i ask of you 
 
e---------------------------------------------------------------------------- 
b-/8------------------------------------------------------------------------- 
g----10-9-7------7-9-7h9~---------------------------------------------------- 
d-----------9-10------------------------------------------------------------- 
a---------------------------------------------------------------------------- 
e---------------------------------------------------------------------------- 
 
and i know that someday 
 
e---------------------------------------------------------------------------- 
b---------------------------------------------------------------------------- 
g---------------------------------------------------------------------------- 
d-----7-9--10/12--10--------------------------------------------------------- 
a-5/7------------------------------------------------------------------------ 
e---------------------------------------------------------------------------- 
 
you would remember the way that this moment feels to you 
 
don't let it go 
 
e---------------------------------------------------------------------------- 
b-10------------------------------------------------------------------------- 
g----10--5-5-5h77~----------------------------------------------------------- 
d---------------------------------------------------------------------------- 
a---------------------------------------------------------------------------- 
e---------------------------------------------------------------------------- 
 
don't turn your back on what you think you know, you never know 
 
e---------------------------------------------------------------------------- 
b-----10--------------------------------------------------------------------- 
g-7/9----10-9-7-5----4h5--7-7-7---------------------------------------------- 
d------------------7--------------------------------------------------------- 
a---------------------------------------------------------------------------- 
e---------------------------------------------------------------------------- 
 
don't leave me alone 
 
e---------------------------------------------------------------------------- 
b-7/9-7/9--7-5--5h7---------------------------------------------------------- 
g-------------------7-7------------------------------------------------------ 
d---------------------------------------------------------------------------- 
a---------------------------------------------------------------------------- 
e---------------------------------------------------------------------------- 
 
'cause i need you 
 
e---------------------------------------------------------------------------- 
b----------------------------------12-13-15-17------------------------------- 
g----------------10-12-10-14-12-14------------------------------------------- 
d----------10-12------------------------------------------------------------- 
a-12-10-12------------------------------------------------------------------- 
e---------------------------------------------------------------------------- 
 
to cling to 
 
e-13b--13b--13b-------------------------------------------------------------- 
b-17b--17b--17b--15h13p12---------------------------------------------------- 
g-------------------------14b------------------------------------------------ 
d---------------------------------------------------------------------------- 
a---------------------------------------------------------------------------- 
e---------------------------------------------------------------------------- 
 
Chorus: 
------- 
 
"cause you are my kind 
 
your all that i want 
 
 
e-12-12-12--12h13--12h13----------------------------------------------------- 
b---------------------------------------------------------------------------- 
g---------------------------------------------------------------------------- 
d---------------------------------------------------------------------------- 
a---------------------------------------------------------------------------- 
e---------------------------------------------------------------------------- 
 
here in this life  
 
e-13h12-------10h12--10------------------------------------------------------ 
b-------15-13---------------------------------------------------------------- 
g---------------------------------------------------------------------------- 
d---------------------------------------------------------------------------- 
a---------------------------------------------------------------------------- 
e---------------------------------------------------------------------------- 
 
Until we are gone 
 
e-10-12-9-10-9--7-9---------------------------------------------------------- 
b-10---------10-----10------------------------------------------------------- 
g---------------------------------------------------------------------------- 
d---------------------------------------------------------------------------- 
a---------------------------------------------------------------------------- 
e---------------------------------------------------------------------------- 
 
ou breath and our skin 
 
our hearts and our minds 
 
 
e-15-13-15-12--------13-12--12-10-9-7--7h10---------------------------------- 
b-------------10h12---------------------------------------------------------- 
g---------------------------------------------------------------------------- 
d---------------------------------------------------------------------------- 
a---------------------------------------------------------------------------- 
e---------------------------------------------------------------------------- 
 
there one of the same,you are my kind 
 
e--------------------7-8p7--------------------------------------------------- 
b-8-10-10--8h10-8h10--------10-8-8h10---------------------------------------- 
g---------------------------------------------------------------------------- 
d---------------------------------------------------------------------------- 
a---------------------------------------------------------------------------- 
e---------------------------------------------------------------------------- 
 
2nd verse: 
---------- 
 
Well call on me baby 
 
e---------------------------------------------------------------------------- 
b-----------5---------------------------------------------------------------- 
g-7/9-7-5-7---5---5-5--7----------------------------------------------------- 
d---------------7------------------------------------------------------------ 
a---------------------------------------------------------------------------- 
e---------------------------------------------------------------------------- 
 
if you should ever need someone 
 
e---------------------------------------------------------------------------- 
b--10----------------------5----5-------------------------------------------- 
----------------------------------------------------------------------------- 
g-----10-9-7-7/9--7-5-7--5----7---------------------------------------------- 
d---------------------------------------------------------------------------- 
a---------------------------------------------------------------------------- 
e---------------------------------------------------------------------------- 
 
to help get your head straight 
 
e---------------------------------------------------------------------------- 
b-8-------------5------------------------------------------------------------ 
g---10-9-7-5--5---5-7-------------------------------------------------------- 
d---------------------------------------------------------------------------- 
a---------------------------------------------------------------------------- 
e---------------------------------------------------------------------------- 
 
I'll be your resident all night 
 
Sure i'm glad just having you around 
 
 
e---------------------------------------------------------------------------- 
b---------------------------------------------------------------------------- 
g---------5-7-5--9h7p5------------------------------------------------------- 
d-----5-7-------------------------------------------------------------------- 
a-5/7------------------------------------------------------------------------ 
e---------------------------------------------------------------------------- 
 
all that i know 
 
e---------------------------------------------------------------------------- 
b----10---------------------------------------------------------------------- 
g-7/9----10-7-9-7-5--5h7-7--------------------------------------------------- 
d---------------------------------------------------------------------------- 
a---------------------------------------------------------------------------- 
e---------------------------------------------------------------------------- 
 
when you find your love you never let it go, never let go 
 
e---------------------7-8p7---------8---------------------------------------- 
b--/8-10-10-10--9-10--------10-9-10------------------------------------------ 
g---------------------------------------------------------------------------- 
d---------------------------------------------------------------------------- 
a---------------------------------------------------------------------------- 
e---------------------------------------------------------------------------- 
 
when you i'm lost 
 
e-13-------12---------------------------------------------------------------- 
b----13-13----12/13---------------------------------------------------------- 
g---------------------------------------------------------------------------- 
d---------------------------------------------------------------------------- 
a---------------------------------------------------------------------------- 
e---------------------------------------------------------------------------- 
 
I get scattered (scattered) 
 
e---------------------------------------------------------------------------- 
b-/10-10-12-12-13-13-15------------------------------------------------------ 
g---------------------------------------------------------------------------- 
d---------------------------------------------------------------------------- 
a---------------------------------------------------------------------------- 
e---------------------------------------------------------------------------- 
 
I'm shattered 
 
 
e-12b--12b--12b---12--------------------------------------------------------- 
b-14b--14b--14b---13--------------------------------------------------------- 
g-----------------14--------------------------------------------------------- 
d---------------------------------------------------------------------------- 
a---------------------------------------------------------------------------- 
e---------------------------------------------------------------------------- 
 
Chorus 2: 
--------- 
 
'cause you are my kind, you're all that i want 
 
e-15p13--12-13-9-10---------------------------------------------------------- 
b---------------------------------------------------------------------------- 
g---------------------------------------------------------------------------- 
d---------------------------------------------------------------------------- 
a---------------------------------------------------------------------------- 
e---------------------------------------------------------------------------- 
 
here in this life 
 
e-15-12-13-10--12-8h10------------------------------------------------------- 
b---------------------------------------------------------------------------- 
g---------------------------------------------------------------------------- 
d---------------------------------------------------------------------------- 
a---------------------------------------------------------------------------- 
e---------------------------------------------------------------------------- 
 
until we are gone 
 
e-8--8---8--8--8-8-8--10p8--------------------------------------------------- 
b10-10--10-10---------------10h9p7------------------------------------------- 
g----------------------------------9h7p5------------------------------------- 
d----------------------------------------7p5--------------------------------- 
a--------------------------------------------5h7-7--------------------------- 
e---------------------------------------------------------------------------- 
 
our breath and our skin, our hearts and our minds 
 
e-15-13--12-13--10-12--8-10-------------------------------------------------- 
b---------------------------------------------------------------------------- 
g---------------------------------------------------------------------------- 
d---------------------------------------------------------------------------- 
a---------------------------------------------------------------------------- 
e---------------------------------------------------------------------------- 
 
they're one and the same 'cause you are my kind 
 
e---------------------------------------------------------------------------- 
b-15-13--12h13p12--10-------------------------------------------------------- 
g---------------------------------------------------------------------------- 
d---------------------------------------------------------------------------- 
a---------------------------------------------------------------------------- 
e---------------------------------------------------------------------------- 
 
we're one and the same 
 
e-15-13-12-12-10-7-8--------------------------------------------------------- 
b---------------------------------------------------------------------------- 
g---------------------------------------------------------------------------- 
d---------------------------------------------------------------------------- 
a---------------------------------------------------------------------------- 
e---------------------------------------------------------------------------- 
 
you are my kind 
 
e-11b--11b--11b--10n12--13-12-10--------------------------------------------- 
b-13b--13b--13b-------------------------------------------------------------- 
g---------------------------------------------------------------------------- 
d---------------------------------------------------------------------------- 
a---------------------------------------------------------------------------- 
e---------------------------------------------------------------------------- 
 
Guitar Solo 1: 
---------------- 
 
e----------------------------------/----------------------------------------- 
b----------------------------------/-10-------------------------------------- 
g-----4-5--4h5-4-5-7-------4-7-7---/---10-9-7-5---5-7-9--7h9----------------- 
d-5h7----------------7-7-7-------7-/------------7---------------------------- 
a----------------------------------/----------------------------------------- 
e----------------------------------/----------------------------------------- 
 
e---------------/--------------------------------12--13p12-13p12-13p12-13p12- 
b---8-10--8-10--/-----12-13--12-13--12-13--13/15----------------------------- 
g-9-------------/-/12-------------------------------------------------------- 
d---------------/------------------------------------------------------------ 
a---------------/------------------------------------------------------------ 
e---------------/------------------------------------------------------------ 
 
e-12-12-13-15-17b-17h15p13-12------------------------------------------------ 
b---------------------------------------------------------------------------- 
g---------------------------------------------------------------------------- 
d---------------------------------------------------------------------------- 
a---------------------------------------------------------------------------- 
e---------------------------------------------------------------------------- 
 
3rd verse: 
---------- 
 
Don't let it go 
 
e---------------------------------------------------------------------------- 
b-5b-5b---------------------------------------------------------------------- 
g-------7-5-7---------------------------------------------------------------- 
d---------------------------------------------------------------------------- 
a---------------------------------------------------------------------------- 
e---------------------------------------------------------------------------- 
 
Don't turn your back on what you trhink you know,you never know 
 
e-----5-----8-7-5--7-5------------------------------------------------------- 
b-5/7---7--------------7--8/10----------------------------------------------- 
g---------------------------------------------------------------------------- 
d---------------------------------------------------------------------------- 
a---------------------------------------------------------------------------- 
e---------------------------------------------------------------------------- 
 
Don't leave me alone 
 
e-13-------12---------------------------------------------------------------- 
b----13-13---12/13----------------------------------------------------------- 
g---------------------------------------------------------------------------- 
d---------------------------------------------------------------------------- 
a---------------------------------------------------------------------------- 
e---------------------------------------------------------------------------- 
 
'cause i need you (i need you) 
 
e---------------------------------------------------------------------------- 
b-/10-10-12-12-13-13-15------------------------------------------------------ 
g---------------------------------------------------------------------------- 
d---------------------------------------------------------------------------- 
a---------------------------------------------------------------------------- 
e---------------------------------------------------------------------------- 
 
to cling to 
 
e-13b--13b--13b--13b--------------------------------------------------------- 
b-17b--17b--17b--17b--------------------------------------------------------- 
g---------------------------------------------------------------------------- 
d---------------------------------------------------------------------------- 
a---------------------------------------------------------------------------- 
e---------------------------------------------------------------------------- 
 
Chorus 3: 
--------- 
 
'Cause you are my kind 
 
e---------------------------------------------------------------------------- 
b-8-10-10--8-10-8-10--------------------------------------------------------- 
g---------------------------------------------------------------------------- 
d---------------------------------------------------------------------------- 
a---------------------------------------------------------------------------- 
e---------------------------------------------------------------------------- 
 
you're all that i want 
 
e---------------------------------------------------------------------------- 
b--13-15-15-13-15-13-15------------------------------------------------------ 
g---------------------------------------------------------------------------- 
d---------------------------------------------------------------------------- 
a---------------------------------------------------------------------------- 
e---------------------------------------------------------------------------- 
 
here in this life 
 
e--13-15-15-13-15-13-15------------------------------------------------------ 
b---------------------------------------------------------------------------- 
g---------------------------------------------------------------------------- 
d---------------------------------------------------------------------------- 
a---------------------------------------------------------------------------- 
e---------------------------------------------------------------------------- 
 
until we are gone 
 
e-15/17--15-13-12--12--13h12p10-12-13-13-10-10------------------------------- 
b---------------------------------------------------------------------------- 
g---------------------------------------------------------------------------- 
d---------------------------------------------------------------------------- 
a---------------------------------------------------------------------------- 
e---------------------------------------------------------------------------- 
 
our breath and our skin our hearts and our minds 
 
e-------13-15-12-10---------------------------------------------------------- 
b-15h17--------------15-12--15/17-------------------------------------------- 
g---------------------------------------------------------------------------- 
d---------------------------------------------------------------------------- 
a---------------------------------------------------------------------------- 
e---------------------------------------------------------------------------- 
 
they're one and the same 
 
e-13h12p10---12-8-10--------------------------------------------------------- 
b---------------------------------------------------------------------------- 
g---------------------------------------------------------------------------- 
d---------------------------------------------------------------------------- 
a---------------------------------------------------------------------------- 
e---------------------------------------------------------------------------- 
 
"cause you are my kind 
 
e--10--10--10--12h10--------------------------------------------------------- 
b--13--13--13---------13h12p10----------------------------------------------- 
g---------------------------------------------------------------------------- 
d---------------------------------------------------------------------------- 
a---------------------------------------------------------------------------- 
e---------------------------------------------------------------------------- 
 
Guitar Solo 2: 
-------------- 
 
e-12-10-12--10-12-10-12/-10-8-10--8-10-8---8-/-10-8-10--8-10--15-12-15h17---- 
b----------------------/-----------------10--/------------------------------- 
g----------------------/---------------------/------------------------------- 
d----------------------/---------------------/------------------------------- 
a----------------------/---------------------/------------------------------- 
e----------------------/---------------------/------------------------------- 
 
e-17-17-17-18-17-15-----------------/-12-10-12--10-12-10-12/---10-8-10-8-10-8 
b-------------------18-17-15--17-17-/----------------------/-10-------------- 
g-----------------------------------/----------------------/----------------- 
d-----------------------------------/----------------------/----------------- 
a-----------------------------------/----------------------/----------------- 
e-----------------------------------/----------------------/----------------- 
 
e-----------------------/12-15-17-19-21-20-21-22b-22b-22b-21-20-18-18-20----- 
b-15h13p12----12-13-15--/-----------------------------------------------20-20 
g----------15-----------/---------------------------------------------------- 
d-----------------------/---------------------------------------------------- 
a-----------------------/---------------------------------------------------- 
e-----------------------/---------------------------------------------------- 
 
Our love and our soul 
 
e-20-20-21-18-18-20---------------------------------------------------------- 
b---------------------------------------------------------------------------- 
g---------------------------------------------------------------------------- 
d---------------------------------------------------------------------------- 
a---------------------------------------------------------------------------- 
e---------------------------------------------------------------------------- 
 
I need you tonight 
 
e--20b----------------------------------------------------------------------- 
b---------------------------------------------------------------------------- 
g---------------------------------------------------------------------------- 
d---------------------------------------------------------------------------- 
a---------------------------------------------------------------------------- 
e---------------------------------------------------------------------------- 
 
your love makes me whole 
 
e-----18-20-18h20--16-15-15h16-15-13----------------------------------------- 
b--20---------------------------------16-15b-15-13-12-13-15-13-12-12-13-15--- 
g---------------------------------------------------------------------------- 
d---------------------------------------------------------------------------- 
a---------------------------------------------------------------------------- 
e---------------------------------------------------------------------------- 
 
And it's all that i can stand, until you come home 
 
e-15-16-18-20-20-18-16-15--16-14-13-------9----10-9-------------------------- 
b-17---------------------------------9-11-11---------12-10-9----------------- 
g-------------------------------------------------------------11-9----9-11--- 
d------------------------------------------------------------------11-------- 
a---------------------------------------------------------------------------- 
e---------------------------------------------------------------------------- 
 
e---------------------------------------------------------------------------- 
b-9-10-12-13---13h12p10------------------------------------------------------ 
g---------------------------------------------------------------------------- 
d---------------------------------------------------------------------------- 
a---------------------------------------------------------------------------- 
e---------------------------------------------------------------------------- 
 
I need you tonight you are my kind (2X) 
 
oh oh ho huah ho, you are my kind 
 
e------8-12-10--10-8--7h8p7-------------------------------------------------- 
b-8-10----------------------10----------------------------------------------- 
g---------------------------------------------------------------------------- 
d---------------------------------------------------------------------------- 
a---------------------------------------------------------------------------- 
e---------------------------------------------------------------------------- 
 
Oh oh ho huah ho 
 
e-------8--12--10------------------------------------------------------------ 
b-/8-10---------------------------------------------------------------------- 
g---------------------------------------------------------------------------- 
d---------------------------------------------------------------------------- 
a---------------------------------------------------------------------------- 
e---------------------------------------------------------------------------- 
 
You are my kind 
 
e-13h15--12h13--10h12--8h10--7h8--------------------------------------------- 
b--------------------------------------8--10b-10b-10b-10b--10p8-------------- 
g---------------------------------8h10--------------------------10h9p7-9h7p5- 
d---------------------------------------------------------------------------- 
a---------------------------------------------------------------------------- 
e---------------------------------------------------------------------------- 
 
 
e---------------------------------------------------------------------------- 
b---------------------------------------------------------------------------- 
g----7-5---7-5----5---------------------------------------------------------- 
d--7-----7-----7-----7-5---5h777~-------------------------------------------- 
a------------------------7--------------------------------------------------- 
e---------------------------------------------------------------------------- 

	  

Search Paypal
auto scroll beats size up size down change color hide chords drawings
tab show chords e-chords YouTube Clip e-chords hide all tabs e-chords go to top tab