Santana

home > Santana

Treat Tab

Santana

Difficulty: nolevelnolevel

by adalgomes

tuner correct add songbook print version text version save to e-mail
chordsukulelecavacokeyboardtabbassdrumsharmonicsflute Guitar Pro
chords

Treat

Year: 2008 - Album: Santana

Key:  C More
Treat Key GG
Treat Key G#G#
Treat Key AA
Treat Key A#A#(one step down)
Treat Key BB(half step down)
Treat Key CC(original key)
Treat Key C#C#(half step up)
Treat Key DD(one step up)
Treat Key D#D#
Treat Key EE
Treat Key FF
Treat Key F#F#
  		  
  C       Gm   C       Gm    C                       Gm   C   Gm 
E|-------|----|-------|-----|-----------------------|----|---|-----| 
B|-------|----|-------|-----|-----------------------|----|---|-----| 
G|-------|----|-------|-----|-----------------------|----|---|-----| 
D|3h5----|----|-------|-----|3h5-3h5----------------|----|---|-----| 
A|----3h5|----|3h5----|-----|--------3h5-3h5-3h5p3\1|----|3h5|-----| 
E|-------|3~--|----3h5|3~---|-----------------------|3~--|---|3~---| 

strumming for a while 

  C   Gm 
E|---|-----| 
B|---|-----| 
G|---|-----| 
D|---|-----| 
A|3h5|x----| 
E|---|-----| 

and then the same riff, with slight variation for about a minute 

  Solo 
E|-----------------------------------------------------------------------------------------------| 
B|-----------------------------------------------------------------------------------------------| 
G|12h14~~---14-14h15-15p14-14-14-14-14-14-15~--15p14-12h14-12----12--------12~--15-15p14-12h14-12| 
D|-------------------------------------------------------------------12/14-----------------------| 
A|-----------------------------------------------------------------------------------------------| 
E|-----------------------------------------------------------------------------------------------| 

E|3------------------3-6p3--6/8-8~p6-8p6-8~-8br9p6-----8b10-8b10-8b10-8pb10-6-8-8-------6--| 
B|-----------------3-------------------------------8------------------------------6h8~----8| 
G|--5br7p3-5-3---3-------------------------------------------------------------------------| 
D|-------------5---------------------------------------------------------------------------| 
A|-----------------------------------------------------------------------------------------| 
E|-----------------------------------------------------------------------------------------| 

E|6p3-3---3-6p5p3-5-5-5-6-6-8-8-10-10--13/15-15-------15-15-------------15----18\| 
B|------6---------------------------------------17-17-------15-15-15/17----17----| 
G|-------------------------------------------------------------------------------| 
D|-------------------------------------------------------------------------------| 
A|-------------------------------------------------------------------------------| 
E|-------------------------------------------------------------------------------| 

E|18p17p15----15-18p17p15----15-18p17p15----15-18p17p15--18p17p15-18p17p15-18p17-18p17p15-18p17p15-18p17p15| 
B|---------18-------------18-------------18----------------------------------------------------------------| 
G|---------------------------------------------------------------------------------------------------------| 
D|---------------------------------------------------------------------------------------------------------| 
A|---------------------------------------------------------------------------------------------------------| 
E|---------------------------------------------------------------------------------------------------------| 
  
E|18b20~~--20b22--20b22-20b22-20b22-20pb22-20pb22-20pb22-20pb22-20pb22-20pb22-20pb21-20pb21-20pbr21-20-20-20-18| 
B|-------------------------------------------------------------------------------------------------------------| 
G|-------------------------------------------------------------------------------------------------------------| 
D|-------------------------------------------------------------------------------------------------------------| 
A|-------------------------------------------------------------------------------------------------------------| 
E|-------------------------------------------------------------------------------------------------------------| 

E|19\18-18\15-17p15-17-15----------------------------15-------------------------------------------------| 
B|------------------------18-18-18-17-17-15-15---------------------------15~-15~----17-17-15-17\15------| 
G|---------------------------------------------17b19----17br19p15-17-------------15----------------15---| 
D|-------------------------------------------------------------------17-------------------------------17| 
A|------------------------------------------------------------------------------------------------------| 
E|------------------------------------------------------------------------------------------------------| 
  
E|-------------------------------18-17-18-17-18b20-18pb20~~--18pb20--20b22-20pb22-20pb22-20-20pb22-20pb22| 
B|15~-15~----17-17-15-17\15------------------------------------------------------------------------------| 
G|--------15----------------15---------------------------------------------------------------------------| 
D|-------------------------------------------------------------------------------------------------------| 
A|-------------------------------------------------------------------------------------------------------| 
E|-------------------------------------------------------------------------------------------------------| 

E|18-20-20-------18\--18p17p15----------18p17p15----------18p17p15----------18p17p15----------18p17p15| 
B|---------18h20---------------18p17p15----------18p17p15----------18p17p15----------18p17p15---------| 
G|----------------------------------------------------------------------------------------------------| 
D|----------------------------------------------------------------------------------------------------| 
A|----------------------------------------------------------------------------------------------------| 
E|----------------------------------------------------------------------------------------------------| 
  
E|----------18p17p15----------18p17p15----------18p17p15----------15-15-------------------------------| 
B|18p17p15-----------18p17p15----------18p17p15----------18p17p15-------17-18-17-----15----15\-15\-15\| 
G|-------------------------------------------------------------------------------15--15----15\-15\-15\| 
D|--------------------------------------------------------------------------------------17------------| 
A|----------------------------------------------------------------------------------------------------| 
E|----------------------------------------------------------------------------------------------------| 

E|------------| 
B|15-15----15\| 
G|15-15----15\| 
D|------17----| 
A|------------| 
E|------------| 

Followed by some funky strums between Gm and C before a stop. 
  
After some more relaxed strumming: 

E|3tr6----3tr5------------------------------------------------------------------------------------------------| 
B|------------------------------------------------------------------------------------------------------------| 
G|-----------------17-17-17-17-17br19p15----------------------14h15-14p12----12/14-12h14p12-----------------12| 
D|---------------------------------------17-17~----------17~--------------12-----------------12-15-15-15p14---| 
A|-------------------------------------------------17h19------------------------------------------------------| 
E|------------------------------------------------------------------------------------------------------------| 

E|--------------------------------------------------------------------------------------------| 
B|--------------------------------------------------------------------------------------------| 
G|-----------------------------------12-12-12-12~-------12h14-12h14-12h14-12/14\12\10-10\9\7-3| 
D|15-14h15p14-12-15\12---------12h14--------------12h14---------------------------------------| 
A|---------------------13-10------------------------------------------------------------------| 
E|--------------------------------------------------------------------------------------------| 
  
E|-----------------------------------------------------------------------------------------5~| 
B|----------------------------------------------------------------------------------------3--| 
G|12~~------12/14-15~---14p12-14p12------------------------------------------------------3---| 
D|-------12-------------------------14p12-14p12-----------------------------------------5----| 
A|----------------------------------------------13p12h13-13-10-10-8-8-7-7--3-4-5-1/3~--------| 
E|-------------------------------------------------------------------------------------3-----| 



| /  slide up 
| \  slide down 
| h  hammer-on 
| p  pull-off 
| ~  vibrato 
| +  harmonic 
| x  Mute note 
	  

Full key step upFull key step up
Half key step upHalf key step up
Half key step downHalf key step down
Full key step downFull key step down
Search Paypal
auto scroll beats size up size down change color hide chords drawings
tab show chords e-chords YouTube Clip e-chords hide all tabs e-chords go to top tab