Santana

home > Santana

Into the Night Tab

Santana

Difficulty: ExpertExpert

by raider4life

tuner correct add songbook print version text version save to e-mail
chordsukulelecavacokeyboardtabbassdrumsharmonicsflute Guitar Pro
chords

Into the Night

Year: 2007 - Album: Ultimate Santana

  		(Ft. Chad Kroger)

(INTRO)

E   E  E   E   Q     Q 
E||-----------------------------| 
B||-----------------------------| 
G||-----------------------------| 
D||--10--10--9s--7--------------| 
A||-----------------10~----L----| 
E||-----------------------------| 


  E   E   E    E   E    E  E  E 
---------------------------------| 
---------------------------------| 
---------------------------------| 
-----10--12s--14--12s--10--L--L--| 
--L------------------------------| 
---------------------------------| 


  E   S   S  E   E   Q     E.   S 
----------------------------------| 
----------------------------------| 
------------12--14--14------------| 
--L--12s-14---------------10~---L-| 
----------------------------------| 
----------------------------------| 


   S S  S S  S S  E   E  E  E  E 
----------------------------------| 
----------------------------------| 
--14-L----------------------------| 
-------12-L-10-L-10~--L--L--L--L--| 
----------------------------------| 
----------------------------------| 


   S S  T T S  S S S S S T T S  T S  S  S S T 
----------------------------------------------| 
----------------------------------------------| 
-------------------9-L-9-L-L-Ls-L-L-14--------|-L-L-L 
--------------10-L----------------------------| 
--10-L-12-L-L---------------------------------| 
----------------------------------------------| 

	  

Search Paypal
auto scroll beats size up size down change color hide chords drawings
tab show chords e-chords YouTube Clip e-chords hide all tabs e-chords go to top tab