Sandra Bae

All Of Me

Sandra Bae

tabs

by  ABELAMIN

save to print version add songbook text version e-mail correct tuner
chordsukulelecavacokeyboardtabbassdrumsharmonicaflute Guitar Pro
close

there isn't a video lesson for this song

chords

All Of Me

	  		

Tuning: Standard  
. 

So Sandra teased us with a really good 15 sec arrangement that i will share  
with you here! 

e|-----------0---------------------------------------------------------------| 
B|--3------0----------0--------------0----------0--0-------------------------| 
G|------(0)-------(0)-------2------0------------0--0--2--2---2p0h2-----------| 
D|----(0)------(0)-------0-------2-----------2-------------2-----------------| 
A|-----------------------------2-----------2----------3----------------------| 
E|--3-----------------2-----0------------0-----------------------------------| 

e|------------------------------------------3--------------------------------| 
B|--------0-0------------------------0h1h3-----------------------------------| 
G|------0---------2--2---2p0h2-----0-----------------------------------------| 
D|----2--------0--0----0--------0--------------------------------------------| 
A|--3------------------------------------------------------------------------| 
E|---------------------------------------------------------------------------| 


************************************ 

| /   slide up 
| \   slide down 
| h   hammer-on 
| p   pull-off 
| ~   vibrato 
| +   harmonic 
| x   Mute note 
| b   Bend 
| pb  Pre-bend 
| br  Bend release 
| pbr Pre-bend release 
| brb Bend release bend 

************************************ 
		  

See also:

tabs Deep Purple - Highway Star tabs Deep Purple - Smoke On The Water (Easy Intro) tabs Deep Purple - Space Truckin tabs Deep Purple - Rat Bat Blues tabs Deep Purple - Smoke On Water (ver. 2) tabs Deep Purple - Lazy
e-chords

Other versions:

tabs Boyce Avenue - All Of Me tabs Sandra Bae - All Of Me tabs Jazz Standard - All Of Me
auto scroll beats size up size down change color hide chords drawings
tab show chords e-chords YouTube Clip e-chords hide all tabs e-chords go to top tab

share