save to print version add songbook text version e-mail correct tuner
chordsukulelecavacokeyboardtabbassdrumsharmonicaflute Guitar Pro
close

there isn't a video lesson for this song

chords

Ix

	  		

Intro 
D|---------------------------------------------------------------------------| 
A|---------------------------------------------------------------------------| 
F|----------------------------------------4------6---------------------------| 
C|---~7---------4---------7-------0-------4-(x9)-6-(x7)----------------------|   
G|--------------4-(x16)---7-(x16)-0-(x16)-2------4---------------------------| 
C|-------12\4---4---------7-------0------------------------------------------| 


 verse 1   
D|---------------------------------------------------------------------------| 
A|---------------------------------------------------------------------------| 
F|--11-11-11-11--------11-11-11-11-14-14-14---------7-7-7-7---7-7-7--4----6--| 
C|--x--x--x--x---------x--x--x--x--x--x--x----------x-x-x-x---x-x-x--4----6--| 
G|--9--9--9--9---------9--9--9--9--12-12-12---------5-5-5-5---5-5-5--2----4--| 
C|---------------------------------------------------------------------------| 

D|------------------------------------------------------------------------------------| 
A|------------------------------------------------------------------------------------| 
F|--11-11-11-11---11---11-11-11-11-14-14-14----14---14-14-14-14-----------------------| 
C|--x--x--x--x----x----x--x--x--x--x--x--x-----x----x--x--x--x--12---12-11-9---11-----| 
G|--9--9--9--9----9----9--9--9--9--12-12-12----12---12-12-12-12-12---12-11-9---11-(x9)| 
C|--------------------------------------------------------------12---12-11-9---11-----| 


Chorus 
D|---------------------------------------------------------------------------| 
A|---------------------------------------------------------------------------| 
F|--------------------------------------4------6-----------------------------| 
C|--------------4-------7-------0-------4-(x9)-6-(x7)------------------------| 
G|--------------4-(x16)-7-(x16)-0-(x16)-2------4-----------------------------| 
C|--------------4-------7-------0--------------------------------------------| 


verse 2 
D|---------------------------------------------------------------------------| 
A|---------------------------------------------------------------------------| 
F|--11-11-11-11--------11-11-11-11-14-14-14---------7-7-7-7---7-7-7--4----6--| 
C|--x--x--x--x---------x--x--x--x--x--x--x----------x-x-x-x---x-x-x--4----6--| 
G|--9--9--9--9---------9--9--9--9--12-12-12---------5-5-5-5---5-5-5--2----4--| 
C|---------------------------------------------------------------------------| 

D|---------------------------------------------------------------------------| 
A|---------------------------------------------------------------------------| 
F|-----------------------------------------------7-7777777-7-77-7-7-6-6------| 
C|--4--4444444-4-44-4-444--7-7777777-7-77-7-777--7-7777777-7-77-7-7-6-6------| 
G|--4--4444444-4-44-4-444--7-7777777-7-77-7-777--5-5555555-5-55-5-5-4-4------| 
C|--4--4444444-4-44-4-444--7-7777777-7-77-7-777------------------------------| 
       .......   ..   ...    .......   ..   ...    .......   ..   .   . 
D|---------------------------------------------------------------------------| 
A|---------------------------------------------------------------------------| 
F|--4---------------6-66-6-66-6-6-6------------------------------------------| 
C|--4---------------6-66-6-66-6-6-6------------------------------------------| 
G|--2-22-2-22-2-2---4-44-4-44-4-4-4------------------------------------------| 
C|---------------------------------------------------------------------------| 
      ..   ..   .     ..   ..   . 

Bridge 
D|---------------------------------------------------------------------------| 
A|---------------------------------------------------------------------------| 
F|--7----6----7----4----6----7-77777777777777777-6-666666666666666-----------| 
C|--x----x----x----x----x----7-77777777777777777-6-666666666666666-----------| 
G|--5----4----5----2----4----5-55555555555555555-4-444444444444444-----------| 
C|---------------------------------------------------------------------------| 
                               .................   ............... 

D|---------------------------------------------------------------------------| 
A|---------------------------------------------------------------------------| 
F|--7-77777777777777777--4----6-------------4-----6-66-6-66------------------| 
C|--7-77777777777777777--4----6-----(Solo)--4-----6-66-6-66--~7--------------| 
G|--5-55555555555555555--2----4-------------2-----4-44-4-44------------------| 
C|---------------------------------------------------------------------------| 
      .................                             ..   .. 

************************************ 

| /   slide up 
| \   slide down 
| h   hammer-on 
| p   pull-off 
| ~   vibrato 
| +   harmonic 
| x   Mute note 
| b   Bend 
| pb  Pre-bend 
| br  Bend release 
| pbr Pre-bend release 
| brb Bend release bend 

************************************ 
		  

See also:

tabs Tokio Hotel - Unendlichkeit tabs Hüsker Dü - Pride tabs Tokio Hotel - Ich Bin Nicht Ich Tab tabs Donots - Duck And Cover tabs Donots - So Long tabs Tokio Hotel - Durch Den Monsun
e-chords

Other versions:

tabs Saltatio Mortis - Ix
auto scroll beats size up size down change color hide chords drawings
tab show chords e-chords YouTube Clip e-chords hide all tabs e-chords go to top tab

share