Sahara Hotnights

Hot Night Crash

Sahara Hotnights

tabs

by  PETER

save to print version add songbook text version e-mail correct tuner
chordsukulelecavacokeyboardtabbassdrumsharmonicaflute Guitar Pro
close

there isn't a video lesson for this song

chords

Hot Night Crash

	  		Sahara Hot Nights - Hot Night Crash 
 
This is my first tab, so sorry if it isn?t 100% perfect but this pretty much the whole song and it gives you what you need to get the sound of the song right.  
 
Main Riff: 
 
E||--------------------------------------------------------------| 
B||--------------------------------------------------------------| 
G||-6666-10-11111111-13131313-----15151515-10-11111111-13131313--| 
D||-6666-10-11111111-13131313-X2--15151515-10-11111111-13131313--| 
A||-4444-8--9-9-9-9--11111111-----13131313-8--9-9-9-9--11111111--| 
E||--------------------------------------------------------------| 
 
 
E||--------------------------------| 
B||-********-****************------| 
G||-66666666-1010101010101010------| 
D||-66666666-1010101010101010------| 
A||-44444444-8-8-8-8-8-8-8-8-------| 
E||--------------------------------| 
 
Verse: 
 
E||-------------------------------------------------| 
B||-------------------------------------------------| 
G||-1111-6-666-1111-1515-1313-11-----6--8--11--13---| 
D||-1111-6-666-1111-1515-1313-11-X4--6--8--11--13---| 
A||-9-9--4-444-9-9--1313-1111-9------4--6--9---11---| 
E||-------------------------------------------------| 
 
Main Riff: 
 
E||--------------------------------------------------------------| 
B||--------------------------------------------------------------| 
G||-6666-10-11111111-13131313-----15151515-10-11111111-13131313--| 
D||-6666-10-11111111-13131313-X2--15151515-10-11111111-13131313--| 
A||-4444-8--9-9-9-9--11111111-----13131313-8--9-9-9-9--11111111--| 
E||--------------------------------------------------------------| 
 
 
E||--------------------------------| 
B||-********-****************------| 
G||-66666666-1010101010101010------| 
D||-66666666-1010101010101010------| 
A||-44444444-8-8-8-8-8-8-8-8-------| 
E||--------------------------------| 
 
 
Verse: 
 
E||-------------------------------------------------| 
B||-------------------------------------------------| 
G||-1111-6-666-1111-1515-1313-11-----6--8--11--13---| 
D||-1111-6-666-1111-1515-1313-11-X4--6--8--11--13---| 
A||-9-9--4-444-9-9--1313-1111-9------4--6--9---11---| 
E||-------------------------------------------------| 
 
 
Main Riff: 
 
E||--------------------------------------------------------------| 
B||--------------------------------------------------------------| 
G||-6666-10-11111111-13131313-----15151515-10-11111111-13131313--| 
D||-6666-10-11111111-13131313-X2--15151515-10-11111111-13131313--| 
A||-4444-8--9-9-9-9--11111111-----13131313-8--9-9-9-9--11111111--| 
E||--------------------------------------------------------------| 
 
 
E||--------------------------------| 
B||-********-****************------| 
G||-66666666-1010101010101010------| 
D||-66666666-1010101010101010------| 
A||-44444444-8-8-8-8-8-8-8-8-------| 
E||--------------------------------| 
 
 
Bridge: 
 
E||------------------------------------------------------| 
B||------------------------------------------------------| 
G||-66-10-6----------------66666666-1010101010101010-----| 
D||-66-8--6--10-888-666-X3-66666666-1010101010101010-----| 
A||-44-8--4--10-888-666----44444444-8-8-8-8-8-8-8-8------| 
E||----------8--666-444----------------------------------| 
 
E||------------------------------------------------------| 
B||------------------------------------------------------| 
G||-66-10-6----------------66666666-1010101010101010-----| 
D||-66-8--6--10-888-666-X3-66666666-1010101010101010-----| 
A||-44-8--4--10-888-666----44444444-8-8-8-8-8-8-8-8------| 
E||----------8--666-444----------------------------------| 
 
 
 
Main Riff: 
 
E||--------------------------------------------------------------| 
B||--------------------------------------------------------------| 
G||-6666-10-11111111-13131313-----15151515-10-11111111-13131313--| 
D||-6666-10-11111111-13131313-X2--15151515-10-11111111-13131313--| 
A||-4444-8--9-9-9-9--11111111-----13131313-8--9-9-9-9--11111111--| 
E||--------------------------------------------------------------| 
 
E||--------------------------------------------------------------| 
B||--------------------------------------------------------------| 
G||-6666-10-11111111-13131313-----15151515-10-11111111-13131313--| 
D||-6666-10-11111111-13131313-X2--15151515-10-11111111-13131313--| 
A||-4444-8--9-9-9-9--11111111-----13131313-8--9-9-9-9--11111111--| 
E||--------------------------------------------------------------| 
 
E||--------------------------------------------------------------| 
B||--------------------------------------------------------------| 
G||-6666-10-11111111-13131313-----15151515-10-11111111-13131313--| 
D||-6666-10-11111111-13131313-X2--15151515-10-11111111-13131313--| 
A||-4444-8--9-9-9-9--11111111-----13131313-8--9-9-9-9--11111111--| 
E||--------------------------------------------------------------| 
 
E||-----------| 
B||-----------| 
G||-66666666--| 
D||-66666666--| 
A||-44444444--| 
E||-----------| 
 
Key: 
* = Palm Mute 
 

		  

See also:

tabs Yngwie Malmsteen - All I Want is Everything tabs Yngwie Malmsteen - Caught in the Middle tabs Yngwie Malmsteen - Dark Star tabs Yngwie Malmsteen - Icarus Dream Fanfare tabs Yngwie Malmsteen - Island In The Sun tabs Yngwie Malmsteen - Tomorrow's gone
e-chords

Other versions:

tabs Sahara Hotnights - Hot Night Crash
auto scroll beats size up size down change color hide chords drawings
tab show chords e-chords YouTube Clip e-chords hide all tabs e-chords go to top tab

share