Sad Lovers And Giants

Landslide

Sad Lovers And Giants

tabs nolevel nolevel

by  ABELAMIN

save to print version add songbook text version e-mail correct tuner
chordsukulelecavacokeyboardtabbassdrumsharmonicaflute Guitar Pro
close

there isn't a video lesson for this song

chords

Landslide

	  		

Tuning: EADGBe 

Intro: 

e|-------------------------------------------------------------------| 
B|-----------7---------------7---------------5---------------5-------| 
G|-------5-------5-------7-------7-------3-------3-------5-------5---| 
D|---0---------------0---------------0---------------0---------------|   * 5 
A|-------------------------------------------------------------------| 
E|-------------------------------------------------------------------| 

e|-------------------------------------------5-----------------------| 
B|-----------7---------------7-----------6-------6-----------0-------| 
G|-------5-------5-------7-------7-----------------------0-------0---| 
D|---0---------------0---------------0---------------0---------------| 
A|-------------------------------------------------------------------| 
E|-------------------------------------------------------------------| 


Middle (play 7 times): 

e|-------------------------------------------------------------------| 
B|-----------7---------------7---------------5---------------5-------| 
G|-------5-------5-------7-------7-------3-------3-------5-------5---| 
D|---0---------------0---------------0---------------0---------------|   * 3 
A|-------------------------------------------------------------------| 
E|-------------------------------------------------------------------| 

e|-------------------------------------------5-----------------------| 
B|-----------7---------------7-----------6-------6-----------0-------| 
G|-------5-------5-------7-------7-----------------------0-------0---| 
D|---0---------------0---------------0---------------0---------------| 
A|-------------------------------------------------------------------| 
E|-------------------------------------------------------------------| 


Final part: 

e|-------------------------------------------------------------------| 
B|-----------7---------------7---------------5---------------5-------| 
G|-------5-------5-------7-------7-------3-------3-------5-------5---| 
D|---0---------------0---------------0---------------0---------------|   * 3 
A|-------------------------------------------------------------------| 
E|-------------------------------------------------------------------| 

e|-------------------------------------------5---------------7---------------10---| 
B|-----------7---------------7-----------6-------6-------8-------8-------10-------| 
G|-------5-------5-------7-------7------------------------------------------------| 
D|---0---------------0---------------0---------------0---------------0------------| 
A|--------------------------------------------------------------------------------| 
E|--------------------------------------------------------------------------------| 



November 2, 2014 
		  

See also:

tabs Deep Purple - Sometimes a Feel Like Screaming tabs Deep Purple - Mistreated tabs Deep Purple - Smoke on the Water (ver. 2) tabs Ira! - Vitrine Viva tabs Doa - Sexyest Girl tabs Deep Purple - Ted The Mechanic
e-chords

Other versions:

tabs Fleetwood Mac - Landslide tabs Boyce Avenue - Landslide tabs Sad Lovers And Giants - Landslide
auto scroll beats size up size down change color hide chords drawings
tab show chords e-chords YouTube Clip e-chords hide all tabs e-chords go to top tab

share with facebook