Ruth Etting

Shine On Harvest Moon

Ruth Etting

tabs

by  CARLLUZ

save to print version add songbook text version e-mail correct tuner
chordsukulelecavacokeyboardtabbassdrumsharmonicaflute Guitar Pro
close

there isn't a video lesson for this song

chords

Shine On Harvest Moon

	  		
verse 1 

e|---------------------------------------------------| 
B|---0-0---0---0---0---0-----------0-----0-0---0---0-| 
G|-------3---3---3---3---0-------0---0-------3---3---| 
D|-------------------------2-2-4-------2-------------| 
A|---------------------------------------------------| 
E|---------------------------------------------------| 

e|---------------------------------------------------| 
B|---0---0-----0---0---1-0-1-0-1-0-1-0-1-------------| 
G|-3---3---0-----2---2-------------------2-----0---0-| 
D|-----------2-----------------------------2-4---0---| 
A|---------------------------------------------------| 
E|---------------------------------------------------| 

e|---------------------------------------------------| 
B|-0-3---0-2---0---0-2---0-0---0-1-2-1-2---3---------| 
G|-----2-----2---2-----2-----3-----------2-----------| 
D|---------------------------------------------------| 
A|---------------------------------------------------| 
E|---------------------------------------------------| 

Chorus 

e|---------------------------------------------------| 
B|---0-1-0-1-0-----------0---0---0---3-0-------------| 
G|-------------1-----------2---2---2-----2-0-----0---| 
D|---------------2---------------------------2-0---2-| 
A|-----------------4-3-4-----------------------------| 
E|---------------------------------------------------| 

e|---------------------------------------------------| 
B|-------------1-0-1-0-----------0-----0---0---3-0---| 
G|-----0-----0---------1-----------2-2---2---2-----0-| 
D|-0-2---2-0-------------2---------------------------| 
A|-------------------------4-3-4---------------------| 
E|---------------------------------------------------| 

e|---------------------------------------------------| 
B|---------------------------------------------------| 
G|---------0-----------------------------------------| 
D|-0-2-0-2-------------------------------------------| 
A|---------------------------------------------------| 
E|---------------------------------------------------| 

verse 2 

e|---------------------------------------------------| 
B|---0-0---0---0---0---0-----------0-----0-0---0---0-| 
G|-------3---3---3---3---0-------0---0-------3---3---| 
D|-------------------------2-2-4-------2-------------| 
A|---------------------------------------------------| 
E|---------------------------------------------------| 

e|---------------------------------------------------| 
B|---0---0-----0---0---1-0-1-0-1-0-1-0-1-------------| 
G|-3---3---0-----2---2-------------------2-----0---0-| 
D|-----------2-----------------------------2-4---0---| 
A|---------------------------------------------------| 
E|---------------------------------------------------| 

e|---------------------------------------------------| 
B|-0-3---0-2---0---0-2---0-0---0-1-2-1-2---3---------| 
G|-----2-----2---2-----2-----3-----------2-----------| 
D|---------------------------------------------------| 
A|---------------------------------------------------| 
E|---------------------------------------------------| 

Chorus 

e|---------------------------------------------------| 
B|---0-1-0-1-0-----------0---0---0---3-0-------------| 
G|-------------1-----------2---2---2-----2-0-----0---| 
D|---------------2---------------------------2-0---2-| 
A|-----------------4-3-4-----------------------------| 
E|---------------------------------------------------| 

e|---------------------------------------------------| 
B|-------------1-0-1-0-----------0-----0---0---3-0---| 
G|-----0-----0---------1-----------2-2---2---2-----0-| 
D|-0-2---2-0-------------2---------------------------| 
A|-------------------------4-3-4---------------------| 
E|---------------------------------------------------| 

e|---------------------------------------------------| 
B|---------------------------------------------------| 
G|---------0-----------------------------------------| 
D|-0-2-0-2-------------------------------------------| 
A|---------------------------------------------------| 
E|---------------------------------------------------| 
		  

See also:

tabs ATHLETE - El Salvador tabs Julie London - I Am Glad There Is You tabs Stylistics - You are everything (intro) tabs Iron & Wine - Flightless Bird, American Mouth tabs Stylistics - You Make Me Feel Brand New tabs Kim Carnes - Bette Davis Eyes
e-chords

Other versions:

tabs Ruth Etting - Shine On Harvest Moon
auto scroll beats size up size down change color hide chords drawings
tab show chords e-chords YouTube Clip e-chords hide all tabs e-chords go to top tab

share with facebook