Russian Circles

Deficit

Russian Circles

tabs

by  JOAOEWERTON

save to print version add songbook text version e-mail correct tuner
chordsukulelecavacokeyboardtabbassdrumsharmonicaflute Guitar Pro
close

there isn't a video lesson for this song

chords

Deficit

Key:  C More
Deficit Key GG
Deficit Key G#G#
Deficit Key AA
Deficit Key A#A#(one step down)
Deficit Key BB(half step down)
Deficit Key CC(original key)
Deficit Key C#C#(half step up)
Deficit Key DD(one step up)
Deficit Key D#D#
Deficit Key EE
Deficit Key FF
Deficit Key F#F#
	  		Drop C Tuning: C G C F A D 


FIRST RIFF: 0:00 
Tremolo(pick really fast) these notes.  You know the timing. 
D|-------17-----------------------------------------17----------16--| 
A|-15---------18-------14-----18--------------15---------18---------| 
F|------------------------------------13----------------------------| 
C|------------------------------------------------------------------| 
G|------------------------------------------------------------------| 
C|------------------------------------------------------------------| 

SECOND RIFF: 0:30 some of these chords are timed weird so listen to the track. 

D|--------------------------------------------------------------| 
A|--------------------------------------------------------------| 
F|--7----10---6------7---14---13---16---13----7---10----9----13-| 
C|--x----x----x------x---x----x----x----x-----x---x-----x-----x-| 
G|--5----8----4------5---12---11---14---11----5---8-----7----11-| 
C|--------------------------------------------------------------| 


THIRD RIFF: 1:16 

D|------------------------------------------------| 
A|------------------------------------------------| 
F|-12--13--12-13--15--13--12----17--16---17---16--| 
C|-x---x---x--x---x---x----x----x---x----x----x---| 
G|-10--11--10-11--13--11--10----15--14---15---14--| 
C|------------------------------------------------| 

REPEAT THIS SEGMENT OF THE SECOND RIFF 1:47 

D|---------------------------------------------| 
A|---------------------------------------------| 
F|-7---14---13---16---13----7---10----9---13---| 
C|-x---x----x----x----x-----x---x-----x---x----| 
G|-5---12---11---14---11----5---8-----7---11---| 
C|---------------------------------------------| 

REPEAT THIRD RIFF 2:17 


D|------------------------------------------------| 
A|------------------------------------------------| 
F|-12--13--12-13--15--13--12----17--16---17---16--| 
C|-x---x---x--x---x---x----x----x---x----x----x---| 
G|-10--11--10-11--13--11--10----15--14---15---14--| 
C|------------------------------------------------| 


FOURTH RIFF 3:06. (Rhythm) 
WITH HEAVY PALM MUTING 

D|--------------------------------| 
A|--------------------------------| 
F|--------------------------------| 
C|--11-11-11--11-11-11--11-11-11--|  repeat this over the lead riff (you may need a  
second guitarist). 
G|--11-11-11--11-11-11--11-11-11--| 
C|--11-11-11--11-11-11--11-11-11--| 

FIFTH RIFF 3:29. (Lead) 

D|--------------------------| 
A|-9----12-----9------------| 
F|---9------11----6---11--8-| 
C|--------------------------|            (X3) 
G|--------------------------| 
C|--------------------------| 


The palm muting continues until the end of the song 
A piano can be heard at 4:51 
This is what it plays transcribed for guitar; 

D|-------------------------------------------------------------| 
A|-------9--------------9-----------------8-------------8------| 
F|----9----9--------9------9-----------8-----8-------8----8----| 
C|-11-----------11-----------------10------------10------------| 
G|-------------------------------------------------------------| 
C|-------------------------------------------------------------| 

That's it this is my first Russian circles song, hope fully I will do more soon 
I played it through a few times so I think it's good 
Please enjoy:) 
		  

Full key step upFull key step up
Half key step upHalf key step up
Half key step downHalf key step down
Full key step downFull key step down
hide glossary

See also:

tabs Deep Purple - Burn tabs Deep Purple - No No No tabs Deep Purple - Smoke on the water(ver. 2) tabs Deep Purple - Time To Kill tabs Deep Purple - Smoke on The Water (ver.3) tabs Deep Purple - Fireball
e-chords

Other versions:

tabs Russian Circles - Deficit
auto scroll beats size up size down change color hide chords drawings
tab show chords e-chords YouTube Clip e-chords hide all tabs e-chords go to top tab

share