Rozen Maiden

Bara No Jubai

Rozen Maiden

tabs nolevel nolevel

by  RENEJUNIOR

save to print version add songbook text version e-mail correct tuner
chordsukulelecavacokeyboardtabbassdrumsharmonicaflute Guitar Pro
close

there isn't a video lesson for this song

chords

Bara No Jubai

	  		 
E|-7-7-9-9-10-10-7-7-9-9-10-10-7-7-10-10-9-9-10-10-5-5-7-7-9-9-10-10-7-7-9-9-| 
B|---------------------------------------------------------------------------| 
G|---------------------------------------------------------------------------| x4 
D|---------------------------------------------------------------------------| 
A|---------------------------------------------------------------------------| 
E|---------------------------------------------------------------------------| 
 

 
E|-10-10-12-12-13-13-10-10-12-12-13-13-10-10-13-13-12-12-13-13-8-8-10-10-12-12-14-14-10-10-12-12| 
B|----------------------------------------------------------------------------------------------| 
G|----------------------------------------------------------------------------------------------| 
D|----------------------------------------------------------------------------------------------| 
A|----------------------------------------------------------------------------------------------| 
E|----------------------------------------------------------------------------------------------| 
 

 
E|-10-10-12-12-13-13-10-10-12-12-13-13-10-10-13-13-12-12-13-13-8-8-10-10-12-12-15-15-15-15-13-13| 
B|----------------------------------------------------------------------------------------------| 
G|----------------------------------------------------------------------------------------------| 
D|----------------------------------------------------------------------------------------------| 
A|----------------------------------------------------------------------------------------------| 
E|----------------------------------------------------------------------------------------------| 
 

 
E|-7-9-10-7-9-10-7-10-9-10-5-7-9-10-7-9-| 
B|--------------------------------------| 
G|--------------------------------------| x4 
D|--------------------------------------| 
A|--------------------------------------| 
E|--------------------------------------| 
 

 
E|-7-7-9-9-10-10-7-7-9-9-10-10-7-7-10-10-9-9-10-10-5-5-7-7-9-9-10-10-7-7-9-9-| 
B|---------------------------------------------------------------------------| 
G|---------------------------------------------------------------------------| 
D|---------------------------------------------------------------------------|         | 
A|---------------------------------------------------------------------------|         | 
E|---------------------------------------------------------------------------|         | 
 
                                                           | 
 
E|-10-10-12-12-13-13-10-10-12-12-13-13-10-10-13-13-12-12-13-13-8-8-10-10-12-12-14-14-10-10-12-12| 
B|----------------------------------------------------------------------------------------------| 
G|----------------------------------------------------------------------------------------------| 
D|----------------------------------------------------------------------------------------------| 
A|----------------------------------------------------------------------------------------------| 
E|----------------------------------------------------------------------------------------------| 
 

 
guitarra2 (acompanhamento) 
E|--2/9-9-7-3~-------2/9-9-7-3-4-4-3---| 
B|-------------------------------------| 
G|-------------------------------------|x2 
D|-------------------------------------| 
A|-------------------------------------|  
E|-------------------------------------| 
 

E|-13-10-12-10-13-10-12-9-10| 
B|--------------------------| 
G|--------------------------| 
D|--------------------------| 
A|--------------------------| 
E|--------------------------| 
		  

See also:

tabs Deep Purple - Sometimes a Feel Like Screaming tabs Deep Purple - Mistreated tabs Deep Purple - Smoke on the Water (ver. 2) tabs Ira! - Vitrine Viva tabs Doa - Sexyest Girl tabs Deep Purple - Ted The Mechanic
e-chords

Other versions:

tabs Rozen Maiden - Bara No Jubai
auto scroll beats size up size down change color hide chords drawings
tab show chords e-chords YouTube Clip e-chords hide all tabs e-chords go to top tab

share with facebook