Royksopp

So easy

Royksopp

tabs Beginner beginner

by  EUROPEU

save to print version add songbook text version e-mail correct tuner
chordsukulelecavacokeyboardtabbassdrumsharmonicaflute Guitar Pro
close

there isn't a video lesson for this song

chords

So easy

	  		p=pull off 
h=hammer on 
v=vibrato 
*Note- only play the ghost notes (x) on the first bit the second time round 
 
Figure 1 
G----------------------------------|-------------------------------| 
D--------------10-5-------77v---8v-|------------10-5-------7p5v----| 
A----------------------------0-----|-------------------------------| 
E--8---8---(x)8--------------------|8---8---(x)8-------------------| 
 
G----------------------------------|-------------------------------| 
D------------10-5-------77v-----8v-|------------10-5-------7p5v----| 
A--------------------------0-------|-------------------0-0-----005v| 
E8---8---(x)8----------------------|8---8---(x)8-------------------| 
Play Twice 
 
G----------------------------------|-------------------------------| 
D------------10-5-------77v-----8v-|------------10-5-------7p5v----| 
A--------------------------0-------|-------------------0-0-----005v| 
E8---8---(x)8----------------------|8---8---(x)8-------------------| 
 
Figure 2 
G----------------------------------|-------------------------------| 
D----------------------------------|-------------------------------| 
A-----------------7----------------|---------------7--------7v-----| 
E--5---5---x5----------------------|5---5---x5---------------------| 
Play 6 times 
 
Figure 3 
G---------------7--2-------44v---5v|-------------7--2-------4p2v---| 
D----------------------------------|-------------------------------| 
A--5---5---x5-----------------2----|5---5---x5----------2-2--------| 
E----------------------------------|-------------------------------| 
 
G------------7--2-------44v---5v-|-----------------------------| 
D--------------------------------|-----------------------4-----| 
A5---5---x5----------------2-----|5---5---x5---------2-2--7654-| 
E--------------------------------|-----------------------------| 
 
Return to the Figure 1 and play 4 times. 
 
Return to Figure 3 and play 4 times. 
 
END 
 
 

		  

See also:

tabs Madrugada - Strange Colour Blue tabs Royksopp - So easy tabs Royksopp - Dooh Dooh
e-chords

Other versions:

tabs Marjorie Estiano - So Easy tabs Royksopp - So easy
auto scroll beats size up size down change color hide chords drawings
tab show chords e-chords YouTube Clip e-chords hide all tabs e-chords go to top tab

share