Royal Republic

Addictive

Royal Republic

tabs

by  PAULLET3

save to print version add songbook text version e-mail correct tuner
chordsukulelecavacokeyboardtabbassdrumsharmonicaflute Guitar Pro
close

there isn't a video lesson for this song

chords

Addictive

	  		

Verse riff 

E|--------------------| 
B|--------------------| 
G|--------------------| 
D|--------------------| 
A|-------------1------| 
E|-3--3--1--3-----3-1-| 

Chorus 

E|-------------------------------------------------------------------------------| 
B|-------------------------------------------------------------------------------| 
G|-5-5-5-5-5-5-5-5---8-8-8-8-8-8-8-8---12-12-12-12-12-12-12-12---6-6-6-6-6-6-6-6-| 
D|-5-5-5-5-5-5-5-5---8-8-8-8-8-8-8-8---12-12-12-12-12-12-12-12---6-6-6-6-6-6-6-6-| 
A|-3-3-3-3-3-3-3-3---6-6-6-6-6-6-6-6---10-10-10-10-10-10-10-10---8-8-8-8-8-8-8-8-| 
E|-------------------------------------------------------------------------------| 

E|--------------------------------------------------------------------------| 
B|--------------------------------------------------------------------------| 
G|-5-5-5-5-5-5-5-5---8-8-8-8-8-8-8-8-8-8-8-8-8-8-8-8---6-6-6-6-6-6-6-6---12-| 
D|-5-5-5-5-5-5-5-5---8-8-8-8-8-8-8-8-8-8-8-8-8-8-8-8---6-6-6-6-6-6-6-6---12-| 
A|-3-3-3-3-3-3-3-3---6-6-6-6-6-6-6-6-6-6-6-6-6-6-6-6---8-8-8-8-8-8-8-8---10-| 
E|--------------------------------------------------------------------------| 

After Chorus 

I'm not sure about this, but goes somewhat like this. 

E|-----------------------------------| 
B|-----------------------------------| 
G|-----------------------------------| 
D|-----------------------------------| 
A|1---1--1-1-------1-1-1---1---1---1-| 
E|--3--------3-1-3-------3---3---3---| 

 
		  

See also:

tabs Refused - Dawkins Christ tabs Royal Republic - Full Steam Spacemachine tabs Opeth - Slither tabs Änglagård - Jordrök tabs Opeth - Wreath tabs Evergrey - Blinded (Intro)
e-chords

Other versions:

tabs Royal Republic - Addictive
auto scroll beats size up size down change color hide chords drawings
tab show chords e-chords YouTube Clip e-chords hide all tabs e-chords go to top tab

share