Roxette

home > Roxette

Gates Of Hell Tab

Roxette

Difficulty: nolevelnolevel

by LINEKERS

tuner correct add songbook print version text version save to e-mail
chordsukulelecavacokeyboardtabbassdrumsharmonicsflute Guitar Pro
chords

Gates Of Hell

  		Tuning: one step down 
principal chords: 
                         *                           (*:w\octaver) 
d|--------------------|--0--------------------------| 
A|--------------------|-----------------------------| 
F|--1--------5--------|-----4-----4-----4-----4-----| 
C|--2--------5--------|--------6-----5-----5--------|gtr.1 
G|--2--------7--------|-----------------------------| 
d|--0--------8--------|-----------------------------| 
A|--------------------|-----------------------------| 
      (both)          |                             | 
                
                      |  *       *       *       *  | 
                     d|--0-------0-------0-------0--| 
                     A|-----------------------------| 
                     F|-----4-2-----4-2-----4-2-----| 
                     C|-----------------------------|gtr.2 
                     G|-----------------------------| 
                     D|-----------------------------| 
                     A|-----------------------------| 
outro: 
d|-------------------------|-------| 
A|-------------------------|-------| 
F|-------------------------|--1----| 
C|--------6----------6-----|--2----|gtr.1 
G|-------(7)--------(7)----|--2----| 
D|--7-----------7----------|--0----| 
A|-------------------------|-------| 

d|--------0----------0-----|-------| 
A|-------------------------|-------| 
F|--4-----------4----------|--*----| 
C|-------------------------|--2----|gtr.2 
G|-------------------------|-------| 
D|-------------------------|-------| 
A|-------------------------|-------| 
	  

Search Paypal
auto scroll beats size up size down change color hide chords drawings
tab show chords e-chords YouTube Clip e-chords hide all tabs e-chords go to top tab