Rosemary

Punk Rock Show

Rosemary

tabs

by  FERNSANTANA

save to print version add songbook text version e-mail correct tuner
chordsukulelecavacokeyboardtabbassdrumsharmonicaflute Guitar Pro
close

there isn't a video lesson for this song

chords

Punk Rock Show

	  		


FigSax1 
e|-------5------7--5----------------------5---------| 
B|--7--8----8-7-------8--7-8p7h8---5-7-8-----7h8p7--| 
G|--------------------------------------------------| 
D|--------------------------------------------------| 
A|--------------------------------------------------| 
E|--------------------------------------------------| 

e|-------5------7--5------------------------------------| 
B|--7--8----8-7-------8--7-8p7h8---7h8-7-5---5-7--7--7--| 
G|-----------------------------------------7------------| 
D|------------------------------------------------------| 
A|------------------------------------------------------| 
E|------------------------------------------------------| 

FigGit1 
e|-------------------------------------| 
B|--7h8-7-5---5-7-8---7h8-7-5---5-7-8--| 
G|----------7-----------------7--------| 
D|-------------------------------------| 
A|-------------------------------------| 
E|-------------------------------------| 

FigSax2 & FigGit2 
e|---------5--------------------| 
B|--------------7--7h8p7-5------| 
G|--4--6-7----7------------7-6--| 
D|------------------------------| 
A|------------------------------| 
E|------------------------------| 

FigSax3 
e|-----------------| 
B|--7h8-7-5--------| 
G|----------7-6-4--| 
D|-----------------| 
A|-----------------| 
E|-----------------| 

FigSax4 
e|---------------------------------| 
B|-------5-------------7---7---7---| 
G|--7------6-----4-----------------| 
D|---------------------------------| 
A|---------------------------------| 
E|---------------------------------| 

FigSax5 
e|----------------------------------------------------------| 
B|--7h8-7-5---5-7---7h8-7-5---5-7---7h8-7-5---5-7-------5---| 
G|----------7---------------7---------------7-------7-------| 
D|----------------------------------------------------------| 
A|----------------------------------------------------------| 
E|----------------------------------------------------------| 

FigGit3 
e|--------------------------------------------------5-5-------------| 
B|--7-7-5-5---------7-7-5-5---------7-7-5-5-------------8-8-7-7-----| 
G|----------7-7-4-----------7-7-4-----------7-7-4---------------4---| 
D|------------------------------------------------------------------| 
A|------------------------------------------------------------------| 
E|------------------------------------------------------------------| 

FigGit4 
e|--------------------------------------------------------------| 
B|--7-7-7-7-7---7h8-7-5---------7-7-7-7-7---5---------7-7-7-7-7-| 
G|----------------------7-6-4-----------------7-6-4-------------| 
D|--------------------------------------------------------------| 
A|--------------------------------------------------------------| 
E|--------------------------------------------------------------| 

---------------------------------------------------------| 
--7-7-7-7-7---7h8-7-5---------7-7-7-7-7---7h8-7-5--------| 
----------------------7-6-4-----------------------7-6-4--| 
---------------------------------------------------------| 
---------------------------------------------------------| 
---------------------------------------------------------| 

FigSax6 
e|---------------7-9-10-9-10-12---10p9-7---7---------------------------------| 
B|--------7-8-10-----------------------------10-10-8-8-7-7-------------------| 
G|--6-7-9--------------------------------------------------9-9-7-7-6-6-------| 
D|---------------------------------------------------------------------9-9---| 
A|---------------------------------------------------------------------------| 
E|---------------------------------------------------------------------------| 


e|-----------------7-9-10-9-10-9-10-9-10-12---10p9------| 
B|----------7-8-10---------------------------------12---| 
G|----6-7-9---------------------------------------------| 
D|--9---------------------------------------------------| 
A|------------------------------------------------------| 
E|------------------------------------------------------| 

FigSax7 
e|-------------------| 
B|--------5----------| 
G|---7---------7-----| 
D|-------------------| 
A|-------------------| 
E|-------------------| 

FigSax8 
e|---------------7-9-10-9-10-12---10p9-7---7------------------------------------| 
B|--------7-8-10-----------------------------10-10-8-8-7-7----------------------| 
G|--6-7-9--------------------------------------------------9-9-7-7-6-6---6-7-9--| 
D|---------------------------------------------------------------------9--------| 
A|------------------------------------------------------------------------------| 
E|------------------------------------------------------------------------------| 

e|-----------------------------------| 
B|-----------------------------------| 
G|--6-7--9--7-9--7-9--7-9b11r9-7-6---| 
D|-----------------------------------| 
A|-----------------------------------| 
E|-----------------------------------| 

e|-------------7-9-10-9-10-12---10p9-7------7-9--7-9-10--9-10-12--12-10-10-9-9-7-7--------------------| 
B|------7-8-10---------------------------10----------------------------------------10-10--------------| 
G|6-7-9----------------------------------------------------------------------------------8-8-7-7------| 
D|-----------------------------------------------------------------------------------------------9-9-7| 
A|----------------------------------------------------------------------------------------------------| 
E|----------------------------------------------------------------------------------------------------| 

e|---------------7-9-10-9-10-12---10p9-7---| 
B|--------7-8-10---------------------------| 
G|--6-7-9----------------------------------| 
D|-----------------------------------------| 
A|-----------------------------------------| 
E|-----------------------------------------| 
		  

See also:

tabs Deep Purple - Smoke On The Water (Intro + solo 01) tabs Deep Purple - Perfect Strangers tabs Deep Purple - Smoke on the water (ver. 3) tabs Ira! - Eu Quero Sempre Mais (ver. 2) tabs Deep Purple - Fireball (ver. 2) tabs Deep Purple - Squished Bananas Dave&cammey
e-chords

Other versions:

tabs Rosemary - Punk Rock Show
auto scroll beats size up size down change color hide chords drawings
tab show chords e-chords YouTube Clip e-chords hide all tabs e-chords go to top tab

share with facebook