Rosanne Cash

Tennessee Flat Top Box

Rosanne Cash

tabs

by  AMAN_CLAUDINO

save to print version add songbook text version e-mail correct tuner
chordsukulelecavacokeyboardtabbassdrumsharmonicaflute Guitar Pro
close

there isn't a video lesson for this song

chords

Tennessee Flat Top Box

	  		E||-------------------------------------------|| 
B||--------0----------------0-----------------|| 
G||-1-2-3--3/4--4-4---------3/4--4-4----------|| 
D||-----------------4--4-4-----------4--4-4---|| 
A||-------------------------------------------|| 
E||-------------------------------------------|| 

E||--------------------------|------------------|| 
B||-0-0----------------------|*----------------*|| 
G||--------2--2-1------------|------------------|| 
D||-----4---------4-2--2-1---|---------6p4-6p4--|| 
A||------------------------4-|*-2--2-2---------*|| 
E||--------------------------|------------------|| 

E||----------|----------|----------|----------|---|| 
B||*--------*|*--------*|*--------*|*--------*|---|| 
G||----------|----------|----------|----------|---|| 
D||----------|----------|----------|----------|---|| 
A||*-----2--*|*-----4--*|*-----2--*|*-----4--*|---|| 
E||---2------|---2------|---2------|---2------|-2-|| 

E||-------------|------------------------------------------| 
B||*-----------*|---0--0------------0-----------0----------| 
G||-------------|-1------1?1h2-1----3/4--4-4----3/4?-4-4---| 
D||-------1-2---|----------------4-----------4-----------4-| 
A||*--2-4------*|------------------------------------------| 
E||-------------|------------------------------------------| 
		  

See also:

tabs Garth Brooks - The Dance tabs Alan Jackson - 5 O'clock Somewhere tabs John Denver - Take Me Home, Country Roads tabs Charlie Daniels - Long Haired Country Boy (ver. 2) tabs John Denver - Sunshine On My Shoulders tabs Alan Jackson - Chattahoochie
e-chords

Other versions:

tabs Rosanne Cash - Tennessee Flat Top Box
auto scroll beats size up size down change color hide chords drawings
tab show chords e-chords YouTube Clip e-chords hide all tabs e-chords go to top tab

share