Romeo Santos

Odio

Romeo Santos

tabs

by  GUSTSILVA

save to print version add songbook text version e-mail correct tuner
chordsukulelecavacokeyboardtabbassdrumsharmonicaflute Guitar Pro
close

there isn't a video lesson for this song

chords

Odio

Key:  A More
Odio Key EE
Odio Key FF
Odio Key F#F#
Odio Key GG(one step down)
Odio Key G#G#(half step down)
Odio Key AA(original key)
Odio Key A#A#(half step up)
Odio Key BB(one step up)
Odio Key CC
Odio Key C#C#
Odio Key DD
Odio Key D#D#
	  		Intro 


E-----6-6-4-4-4-4--3-3-4-4-4-4---/4-4-3-3-3-3---------- 
B-----4-4-4-4-4-4--4-4-4-4-4-4---/4-4-4-4-4-4---------- 
G------------------------------------------------------ 
D------------------------------------------------------ 
A------------------------------------------------------ 
E------------------------------------------------------ 

E--------------------------------------------------- 
B-----6-6-4-4-4-4----------------------------------- 
G-----5-5-5-5-5-5----------------------------------- 
D--------------------------------------------------- 
A--------------------------------------------------- 
E--------------------------------------------------- 

Tal parece       que mi amor crece y crece 

E-----------6p4--------------6p4------------------------------ 
B---------4-----4----------4-----4-------------------------- 
G-------5----------------5-------------------------------- 
D-----6----------------6---------------------------------- 
A---6------------------------------------------------- 
E--------------------------------------------------- 

                     Pero tu desvances 

E---------3-4p3-----------3-4p3---------------------------- 
B-------4-------4-------4-------4----------------------- 
G-----5---------------5------------------------------- 
D---5---------------5--------------------------------- 
A--------------------------------------------------- 
E--------------------------------------------------- 

E--------------------------------------------------- 
B-----6/8-8-6-6h8p6-4h6p4--3-3/4-------------------- 
G--------------------------------------------------- 
D--------------------------------------------------- 
A--------------------------------------------------- 
E--------------------------------------------------- 

Me ofreces tu amistad sin otra excepcion 

E--------------------------------------------------- 
B------------6-8-6h8p6------------6-8-6h8p6----------------------- 
G--------7-8------------------7-8----------------------- 
D------8--------------------8------------------------- 
A----8--------------------8--------------------------- 
E--------------------------------------------------- 

Se que hay otro que ha logrado lo que yo jamas a ti te di 

E-----16p13----15p13----13-----16p13----15p13----13---------------- 
B--13-------13-------13-----13-------13-------13------------------- 
G-----------------------------------------------------15/17-------- 
D------------------------------------------------------------------ 
A------------------------------------------------------------------ 
E------------------------------------------------------------------ 

Un hogar una familia un buen por venir, perdon por hacerte daño 

E---------------------------------------------------------------------- 
B-----16p13----15p13-------18p16----16p15--------18p16----16p15------- 
G-/12-------12-------12/15-------15-------15--15-------15------------- 
D--------------------------------------------------------------------- 
A--------------------------------------------------------------------- 
E--------------------------------------------------------------------- 


E-----------------------------------------------------18-------- 
B----------------------------15-15-15-15-15-15-15-15------------ 
G--------------------------------------------------------------- 
D----15-15-15-15-15-15-15-15------------------------------------ 
A--------------------------------------------------------------- 
E--------------------------------------------------------------- 

Estribillo 

Y por ti, 

E--------------------------------------------------- 
B--------------------------------------------------- 
G--------------8-10/12-8-10-8----------------------- 
D-----------10-------------------------------------- 
A---------11---------------------------------------- 
E--------------------------------------------------- 

Vivo aniquilado en 

E--------------------------------------------------- 
B--------------------------------------------------- 
G--------------8-10/12-8-10-8----------------------- 
D-----------10-------------------------------------- 
A---------11---------------------------------------- 
E--------------------------------------------------- 

en el despecho 

E--------------------------------------------------- 
B--------------------------------------------------- 
G---/12-/10-7/8-5/7--------------------------------- 
D--------------------------------------------------- 
A--------------------------------------------------- 
E--------------------------------------------------- 

Reprimido ardiendo 

E--------------------------------------------------- 
B--------------------------------------------------- 
G------------------------10-8-10-8-10-8-10-8-------------------- 
D---------------------10------------------------------ 
A------------------11--------------------------------- 
E--------------------------------------------------- 

Lo odio aunque el te haga feliz 

E--------------------------------------------------- 
B--------------------------------------------------- 
G------------------------10-8-10-8-10-8-10-8-------- 
D---------------------10---------------------------- 
A------------------11------------------------------- 
E--------------------------------------------------- 

E--------------------------------------------------- 
B--------------------------------------------------- 
G---/12-/10-7/8-5/7--------------------------------- 
D--------------------------------------------------- 
A--------------------------------------------------- 
E--------------------------------------------------- 

A E 

E--------------------------------------------------- 
B--------------------------------------------------- 
G--------------8-10/12-8-10-8----------------------- 
D-----------10-------------------------------------- 
A---------11---------------------------------------- 
E--------------------------------------------------- 

Nada me intimida pero entiendo 

E--------------------------------------------------- 
B--------------------------------------------------- 
G--------------8-10/12-8-10-8----------------------- 
D-----------10-------------------------------------- 
A---------11---------------------------------------- 
E--------------------------------------------------- 

E----/15---/13--13/11------------------------------- 
B----/16---/15--15/13------------------------------- 
G--------------------------------------------------- 
D--------------------------------------------------- 
A--------------------------------------------------- 
E--------------------------------------------------- 

Que el gano la guerra hace tiempo 

E--------------------------------------------------- 
B--------------------------------------------------- 
G------------------------10-8-10-8-10-8-10-8-------------------- 
D---------------------10------------------------------ 
A------------------11--------------------------------- 
E--------------------------------------------------- 

Y se me olvida 

E--------------------------------------------------- 
B--------------------------------------------------- 
G------------------------10-8-10-8-10-8-10-8-------------------- 
D---------------------10------------------------------ 
A------------------11--------------------------------- 
E--------------------------------------------------- 

Que ya te perdi 

E----/18-18-/16-16-15-15-15/13----------------------------- 
B----/20-20-/18-18-16-16-16/15---------------------------- 
G--------------------------------------------------- 
D--------------------------------------------------- 
A--------------------------------------------------- 
E--------------------------------------------------- 

Sueños sus besos, sobre tu cuerpo, 
la envidia se apodera asi de mi, (y te quiero a ti) 
odio a ese hombre porque esta a tu lado, 
perdi tu amor soy un pobre diablo, 
sin tu amor yo no soy nada 

Durante todo esta parte se repite la intro 

E-----6-6-4-4-4-4--3-3-4-4-4-4---/4-4-3-3-3-3---------- 
B-----4-4-4-4-4-4--4-4-4-4-4-4---/4-4-4-4-4-4---------- 
G------------------------------------------------------ 
D------------------------------------------------------ 
A------------------------------------------------------ 
E------------------------------------------------------ 

E--------------------------------------------------- 
B-----6-6-4-4-4-4----------------------------------- 
G-----5-5-5-5-5-5----------------------------------- 
D--------------------------------------------------- 
A--------------------------------------------------- 
E--------------------------------------------------- 

Estribillo 

Solo 

E------------------------------------------------------------- 
B------------------------------------------------------------- 
G----10-10-12-13--15-15-13-13-12h13p12-10-8-8-8/10------------ 
D------------------------------------------------------------- 
A------------------------------------------------------------- 
E------------------------------------------------------------- 

E---13-15-15-16--20-20-18h2018-16h18p16-15h16p15--11-13-13/15----- 
B----------------------------------------------------------------- 
G----------------------------------------------------------------- 
D----------------------------------------------------------------- 
A----------------------------------------------------------------- 
E----------------------------------------------------------------- 

E--------------------------------------------------- 
B---13h15p13-(13h15p13)----------------------------------------------- 
G--------------------------------------------------- 
D--------------------------------------------------- 
A--------------------------------------------------- 
E--------------------------------------------------- 

      Yo fui el llanto, el es tu sonrisa 

E----6------------------------6----------------------- 
B----8------------------------6----------------------- 
G----8------------------------7----------------------- 
D----8------------------------8----------------------- 
A----6------------------------8----------------------- 
E-----------------------------6---------------------- 

     Y lo nuestro desplomo sobre un volcan 

E---4------------6-------------------------------------- 
B---4------------8-------------------------------------- 
G---5------------8-------------------------------------- 
D---6------------8-----------------------10--------------- 
A---6------------6-----------------------10--------------- 
E---4------------------------------------8-------------- 

 Muy deprisa 

E-----6---------------------------------------------- 
B-----6---------------------------------------------- 
G-----7---------------------------------------------- 
D-----8---------------------------------------------- 
A-----8---------------------------------------------- 
E-----6---------------------------------------------- 

Parte en Ingles 

En donde se repite la intro 

E-----6-6-4-4-4-4--3-3-4-4-4-4---/4-4-3-3-3-3---------- 
B-----4-4-4-4-4-4--4-4-4-4-4-4---/4-4-4-4-4-4---------- 
G------------------------------------------------------ 
D------------------------------------------------------ 
A------------------------------------------------------ 
E------------------------------------------------------ 

E--------------------------------------------------- 
B-----6-6-4-4-4-4----------------------------------- 
G-----5-5-5-5-5-5----------------------------------- 
D--------------------------------------------------- 
A--------------------------------------------------- 
E--------------------------------------------------- 

Estribillo Final 


Y por ti, 

E--------------------------------------------------- 
B--------------------------------------------------- 
G--------------8-10/12-8-10-8----------------------- 
D-----------10-------------------------------------- 
A---------11---------------------------------------- 
E--------------------------------------------------- 

Vivo aniquilado en 

E--------------------------------------------------- 
B--------------------------------------------------- 
G--------------8-10/12-8-10-8----------------------- 
D-----------10-------------------------------------- 
A---------11---------------------------------------- 
E--------------------------------------------------- 

en el despecho 

E--------------------------------------------------- 
B--------------------------------------------------- 
G---/12-/10-7/8-5/7--------------------------------- 
D--------------------------------------------------- 
A--------------------------------------------------- 
E--------------------------------------------------- 

Reprimido ardiendo 

E--------------------------------------------------- 
B--------------------------------------------------- 
G------------------------10-8-10-8-10-8-10-8-------------------- 
D---------------------10------------------------------ 
A------------------11--------------------------------- 
E--------------------------------------------------- 

Lo odio aunque el te haga feliz 

E--------------------------------------------------- 
B--------------------------------------------------- 
G------------------------10-8-10-8-10-8-10-8-------- 
D---------------------10---------------------------- 
A------------------11------------------------------- 
E--------------------------------------------------- 

E--------------------------------------------------- 
B--------------------------------------------------- 
G---/12-/10-7/8-5/7--------------------------------- 
D--------------------------------------------------- 
A--------------------------------------------------- 
E--------------------------------------------------- 

A E 

E--------------------------------------------------- 
B--------------------------------------------------- 
G--------------8-10/12-8-10-8----------------------- 
D-----------10-------------------------------------- 
A---------11---------------------------------------- 
E--------------------------------------------------- 

Nada me intimida pero entiendo 

E--------------------------------------------------- 
B--------------------------------------------------- 
G--------------8-10/12-8-10-8----------------------- 
D-----------10-------------------------------------- 
A---------11---------------------------------------- 
E--------------------------------------------------- 

E----/15---/13--13/11------------------------------- 
B----/16---/15--15/13------------------------------- 
G--------------------------------------------------- 
D--------------------------------------------------- 
A--------------------------------------------------- 
E--------------------------------------------------- 

Que el gano la guerra hace tiempo 

E--------------------------------------------------- 
B--------------------------------------------------- 
G------------------------10-8-10-8-10-8-10-8-------------------- 
D---------------------10------------------------------ 
A------------------11--------------------------------- 
E--------------------------------------------------- 

Y se me olvida 

E--------------------------------------------------- 
B--------------------------------------------------- 
G------------------------10-8-10-8-10-8-10-8----------- 
D---------------------10------------------------------ 
A------------------11--------------------------------- 
E----------------------------------------------------- 

Que ya te perdi 

E--------------------------------------------------- 
B--------------------------------------------------- 
G-------------8-------------------------------------- 
D-------------10-------------------------------------- 
A-------------10-------------------------------------- 
E--------------------------------------------------- 
		  

Full key step upFull key step up
Half key step upHalf key step up
Half key step downHalf key step down
Full key step downFull key step down
auto scroll beats size up size down change color hide chords drawings
tab show chords e-chords YouTube Clip e-chords hide all tabs e-chords go to top tab

share