Roger Waters

Wish You Were Here (and David Gilmore )

Roger Waters

tabs Expert expert

by  ROWANE

save to print version add songbook text version e-mail correct tuner
chordsukulelecavacokeyboardtabbassdrumsharmonicaflute Guitar Pro
close

there isn't a video lesson for this song

chords

Wish You Were Here (and David Gilmore )

	  		Part 1 (rhythm guitar 1): 
             Em7          G               Em7          G 
|-------------3-----------3--|-------------3-----------3--| 
|-------------3-----------3--|-------------3-----------3--| 
|-------------0----0------0--|-------------0----0------0--| 
|-----h--0-2--2------2-0--0--|-----h--0-2--2------2-0--0--| 
|----0^2------2-----------2--|----0^2------2-----------2--| 
|--3----------------------3--|--3----------------------3--| 
 
             Em7          Am              Em7          Am 
|-------------3-----------0--|-------------3-----------0--| 
|-------------3-----------1--|-------------3-----------1--| 
|-------------0-----------2--|-------------0-----------2--| 
|-----h--0-2--2--2-0------2--|-----h--0-2--2--2-0------2--| 
|----0^2------2------2-0--0--|----0^2------2------2-0--0--| 
|--3-------------------------|--3-------------------------| 
 
            G 
|-----------3-------------------| 
|-----------3-------------------| 
|-----------0-------------------| 
|------h--0-0-------------------| 
|-----0^2---2-------------------| 
|---3-------3-------------------| 
 
 
 Part 1 (rhythm guitar 1): 
              Em7                             G 
|--------------3------------------------------3-----------| 
|--------------3------------------------------3-----------| 
|--------------0----------------0-------------0-----------| 
|------h--0-2--2-------------------2------0---0-----------| 
|-----0^2------2------------------------------2-----------| 
|---3-----------------------------------------3-----------| 
|                                                         | 
| Part 1 (solo guitar 2):                                 | 
|---------------------------------------------------------| 
|---------------------3--5---3------p-p-------------------| 
|-----------------2/4------4-------4^2^0------------------| 
|-----------------------------------------0----------0-0--| 
|------------------------------------------------0/2------| 
|---------------------------------------------------------| 
 
              Em7                             G 
|--------------3------------------------------3-----------| 
|--------------3------------------------------3-----------| 
|--------------0----------------0-------------0-----------| 
|------h--0-2--2-------------------2------0---0-----------| 
|-----0^2------2------------------------------2-----------| 
|---3-----------------------------------------3-----------| 
|                                                         | 
|                                                         | 
|-----------------3/5-3-----------------------------------| 
|-----------------3/5-3--3/5-3--0--3/5----3-0-0-----------| 
|------------------------2/4-2--0--2/4----2-0-0-----------| 
|---------------------------------------------------------| 
|---------------------------------------------------------| 
|---------------------------------------------------------| 
 
             Em7 
|-------------3-------------| 
|-------------3-------------| 
|-------------0-------------| 
|-----h--0-2--2-------------| 
|----0^2------2-------------| 
|--3------------------------| 
|                           | 
|                           | 
|---------------------------| 
|--------------------3---5--| 
|----------------2/4---4----| 
|---------------------------| 
|---------------------------| 
|---------------------------| 
 
                   Am 
|------------------0------------------------| 
|------------------1------------------------| 
|------------------2------------------------| 
|--2-----0---------2------------------------| 
|------------2--0--0------------------------| 
|-------------------------------------------| 
|                                           | 
|                                           | 
|-------p-----------------------------------| 
|--(6)'5^3---3--------------3-5-------------| 
|----------4----2-----4'(5)-----4'(5)'4--2--| 
|-------------------------------------------| 
|-------------------------------------------| 
|-------------------------------------------| 
 
             Em7                            Am 
|-------------3-----------------------------0--------------| 
|-------------3-----------------------------1--------------| 
|-------------0-----------------------------2--------------| 
|-----h--0-2--2-------------2-----0---------2--------------| 
|----0^2------2-----------------------2--0--0--------------| 
|--3-------------------------------------------------------| 
|                                                          | 
|                                                          | 
|----------------------------------------------------------| 
|--------------------3---5--5'(6)-5-3-5--------------------| 
|----------------2/4---4-----------------2------4'(5)4--2--| 
|----------------------------------------------------------| 
|----------------------------------------------------------| 
|----------------------------------------------------------| 
 
    G 
|---3-----| 
|---3-----| 
|---0-----| 
|---0-----| 
|---2-----| 
|---3-----| 
 
 
Verse: 
C                          D 
  So, so you think you can tell 
            Am                    G 
Heaven from Hell, blue skies from pain. 
                     D                        C 
Can you tell a green field, from a cold steel rail? 
               Am                         G 
A smile from a veil? do you think you can tell? 
                        C                     D 
And did they get you to trade your heroes for ghosts? 
              Am                    G 
Hot ashes for trees?  Hot air for a cool breeze? 
                 D                      C 
Cold comfort for change?  And did you exchange 
                      Am                        G 
A walk on part in the war, for a lead role in a cage? 
 
 
(Guitar 2 solo over Guitar 1 playing Part 1 rhythm) 
 
 
Chorus: 
C                               D 
How I wish, how I wish you were here. 
           Am 
We're just two lost souls swimming in a fish bowl 
G 
  Year after year. 
D                                 C 
Running over the same old ground.   What have we found? 
             Am 
The same old fears. 
              G 
Wish you were here. 
 
 
(Guitar 2 solo over Guitar 1 playing Part 1 rhythm and fade) 
 

		  

Full key step upFull key step up
Half key step upHalf key step up
Half key step downHalf key step down
Full key step downFull key step down
hide glossary

See also:

tabs Yes - Roundabout tabs Queen - we will rock you (solo) tabs Status Quo - Whatever you want tabs Eric Clapton - Tears In Heaven (ver. 3) tabs The Beatles - Blackbird tabs Billy Idol - White Wedding
e-chords

Other versions:

tabs Emmerson Nogueira - Wish You Were Here tabs Pink Floyd - Wish You Were Here tabs Rata Blanca - Wish You Were Here tabs Roger Waters - Wish You Were Here (and David Gilmore ) tabs Incubus - Wish You Were Here (ver. 1) tabs Incubus - Wish You Were Here (ver. 2)
auto scroll beats size up size down change color hide chords drawings
tab show chords e-chords YouTube Clip e-chords hide all tabs e-chords go to top tab

share