Rodrigo y Gabriela

The Russian Messenger

Rodrigo y Gabriela

tabs Easy easy

by  ROBEPOIEL

save to print version add songbook text version e-mail correct tuner
chordsukulelecavacokeyboardtabbassdrumsharmonicaflute Guitar Pro
close

there isn't a video lesson for this song

chords

The Russian Messenger

	  		

Tuning: Standard 

||-------------------------------------||-----------------------------------------| 
||-------------------------------------||-----------5---------------------5-------| 
|*-------------------------------------*|--------4-----4----------------4---4-----| 
|*-----2-------------------2-----------*|-----5-----------5-----------5-------5---| 
||--------2--5--------2------2-5-----2-||-3------------------3-3-5-3------------3-| 
||-0------------3--5----0--------3-5---||-----------------------------------------| 

||-------------------------------------||-----------------------------------------| 
||-------------------------------------||-----------5---------------------5-------| 
|*-------------------------------------*|--------4-----4----------------4---4-----| 
|*-----2-------------------2-----------*|-----5-----------5-----------5-------5---| 
||--------2--5--------2------2-5-----2-||-3------------------3-3-5-3------------3-| 
||-0------------3--5----0--------3-5---||-----------------------------------------| 

||-------------------------------------|-------------------------------------|| 
||-------------------------------------|-------------------------------------|| 
|*-------------------------------------|-------------------------------------*| 
|*-----2-------------------2-----------|-----2-------------------2-----------*| 
||--------2--5--------2------2-5-----2-|--------2--5--------2------2-5-----2-|| 
||-0------------3--5----0--------3-5---|-0------------3--5----0--------3-5---|| 
                                                    
||------------------------------------------------------|---------------------------------------------|| 
||------------------------------------------------------|---------------------------------------------|| 
|*----x---x---x---x---x---x------9-9-9-9-12-12-12-12-14-|----x---x---x---x---x---x------9-9-9-12-12-9-*| 
|*----x---x-4-x-7-x---x---x---9-------------------------|----x---x-4-x-7-x---x---x---9----------------*| 
||-2--x-2-x-2-x-5-x-5-x-7-x-9-7--7-7-7-7-10-10-10-10-12-|-2--x-2-x-2-x-5-x-5-x-7-x-9-7--7-7-7-10-10-7-|| 
||-0----0-----------3---5---7-0-------------------------|-0----0-----------3---5---7-0----------------|| 

|----------------------------|----------------------------|----------------------------|-----------------------| 
|----------------------------|----------------------------|----------------------------|-----------------------| 
|-----x-x-x-----x-x-x----x-x-|-----x-x-x-----x-x-x----x-x-|-----x-x-x-----x-x-x----x-x-|-----x-x-x-------------| 
|-----x-x-x-----x-x-x----x-x-|-----x-x-x-----x-x-x----x-x-|-----x-x-x-----x-x-x----x-x-|-----x-x-x-------------| 
|-10--------10--------10-----|-10--------10--------10-----|-10--------10--------10-----|-10--------9--9--9--9--| 
|-7h8-------7h8-------7h8----|-7h8-------7h8-------7h8----|-7h8-------7h8-------7h8----|-7h8-------10-10-10-10-| 

|------------------------------------------------------|---------------------------------------------| 
|------------------------------------------------------|---------------------------------------------| 
|----x---x---x---x---x---x------9-9-9-9-12-12-12-12-14-|----x---x---x---x---x---x------9-9-9-12-12-9-| 
|----x---x-4-x-7-x---x---x---9-------------------------|----x---x-4-x-7-x---x---x---9----------------| 
|-2--x-2-x-2-x-5-x-5-x-7-x-9-7--7-7-7-7-10-10-10-10-12-|-2--x-2-x-2-x-5-x-5-x-7-x-9-7--7-7-7-10-10-7-| 
|-0----0-----------3---5---7-0-------------------------|-0----0-----------3---5---7-0----------------| 
                                       x3 
||------------------|--------------------||------------------|--------------------| 
||------------------|--------------------||------------------|--------------------| 
|*------------------|--------------------*|------------------|--------------------| 
|*------------------|--------------------*|-5-5-5-5-5-5------|--------------------| 
||-2-2-2-2-2-2----2-|-2-2----2----2----2-||-3-3-3-3-3-3----4-|-4-4----6-6-6---5-4-| 
||-0-0-0-0-0-0----0-|-0-0----0----0----0-||----------------5-|-5-5----7-7-7---3-2-| 

|------------------|------------------|------------------|----------------| 
|------------------|------------------|------------------|----------------| 
|---------4--------|------------------|---------4--------|----------------| 
|-----5-----5------|---7----5---4-5---|-----5-----5------|---7----5--4----| 
|------------------|-4----------------|------------------|-4-----------6--| 
|-0-0---0------0-0-|------0-----------|-0-0---0------0-0-|------0---------| 

|------------------|------------------|-----------------|-----------------| 
|------------------|------------------|-----------------|-----------------| 
|---------4--------|------------------|-------5---4-----|-----------------| 
|-----5-----5------|---7----5---4-5---|-5---------------|-----------------| 
|------------------|-4----------------|-3-------------7-|--7----9-9-9-----| 
|-0-0---0------0-0-|------0-----------|---------------5-|--5----7-7-7-3-2-| 

|------------------|------------------|------------------|----------------| 
|------------------|------------------|------------------|----------------| 
|---------4--------|------------------|---------4--------|----------------| 
|-----5-----5------|---7----5---4-5---|-----5-----5------|---7----5--4----| 
|------------------|-4----------------|------------------|-4-----------6--| 
|-0-0---0------0-0-|------0-----------|-0-0---0------0-0-|------0---------| 

|------------------|------------------|-----------------|-----------------| 
|------------------|------------------|-----------------|-----------------| 
|---------4--------|------------------|-----------------|-----------------| 
|-----5-----5------|---7----5---4-5---|-5-----5---------|-5----5----------| 
|------------------|-4----------------|-3-----4---4-4-4-|-5----6----------| 
|-0-0---0------0-0-|------0-----------|-----------------|-----------7-7-7-| 

|-----------------|-------------------|---------------------|-----------------| 
|-----------------|-------------------|---------------------|-----------------| 
|-----------------|-------------------|---------------------|-----------------| 
|-----------5-4---|-------------------|---------------------|-----------------| 
|---------------7-|-6-------2----2----|-2----2----2----2----|-----------------| 
|-7-7-7-7-7-------|---7-3-2-0----0----|-0----0----0----0----|-0-----3s5-5h7-7-| 

|------------------|-------------------|----------------------12-|-15~----14-14-15-14----14-17-14----14-| 
|------------------|-------------------|----------12~---15-------|--------------------15----------15----| 
|------------------|-------7s9-9s12-12-|-14-14-------------------|--------------------------------------| 
|------------5s7-7-|-9~----------------|-------------------------|--------------------------------------| 
|----5s7-7---------|-------------------|-------------------------|--------------------------------------| 
|------------------|-------------------|-------------------------|--------------------------------------| 

|-15-14----14-17-14----14-15--14-------------------14-|-17--15--14------15--14--------------------------| 
|-------15----------15------------15------------15----|-------------15----------15--12----------15--12--| 
|-------------------------------------16-----16-------|---------------------------------15--14----------| 
|-----------------------------------------16----------|-------------------------------------------------| 
|-----------------------------------------------------|-------------------------------------------------| 
|-----------------------------------------------------|-------------------------------------------------| 

|-------------------------------------------------|--------------------------------------| 
|-------------------------------------------------|--------------------------------------| 
|-15--14--12------15--14--12----------------------|----------12-12-12-14-12-0-12-16-12-0-| 
|-------------14--------------14--12------14--12--|-14~----------------------------------| 
|-------------------------------------14----------|--------------------------------------| 
|-------------------------------------------------|--------------------------------------| 

|-------------------------------------------|----------------------------------------| 
|-------------------------------------------|----------------------------------------| 
|-12-14-12-0-11-12-11-0-9-11-9-0-11-12-11-0-|-11-14-11-0-11-12-11-0-9-11-9-0-7-9-7-0-| 
|-------------------------------------------|----------------------------------------| 
|-------------------------------------------|----------------------------------------| 
|-------------------------------------------|----------------------------------------| 

|------------------------------------|----------------------------------|---------------------------------| 
|------------------------------------|----------------------------------|---------------------------------| 
|-9-11-9-0-9-12-9-0-9-11-9-0-7-9-7-0-|-6-7-6-0-7-9-7-0-7-11-7-0-7-9-7-0-|-6-7-6-0-4-6-4-0-6-7-6-0-4-6-4-0-| 
|------------------------------------|----------------------------------|---------------------------------| 
|------------------------------------|----------------------------------|---------------------------------| 
|------------------------------------|----------------------------------|---------------------------------| 

|---------------------------------|---------------------------------------| 
|---------------------------------|---------------------------------------| 
|-2-0-2-0-4-0-4-0-5-0-5-0-7-0-7-0-|-9-0-9-0-11-0-11-0-12-0-12-0-11-0-11-0-| 
|---------------------------------|---------------------------------------| 
|---------------------------------|---------------------------------------| 
|---------------------------------|---------------------------------------| 

|---------------|------------|--------------|------------|-0--------------|----------------| 
|---------------|------------|--------------|------------|-0--------------|----------------| 
|-9s--4----7----|-2----4-----|--------------|------------|-0--------------|----------------| 
|---------------|---------5--|-7----4----2--|------------|-2--------------|----------------| 
|---------------|------------|--------------|------------|-2--------------|----------------| 
|---------------|------------|--------------|------------|-0--------------|----------------| 

|-------------------------------------|-------------------------------------| 
|-------------------------------------|-------------------------------------| 
|-------------------------------------|-------------------------------------| 
|-----2-------------------2-----------|-----2-------------------2-----------| 
|--------2--5--------2------2-5-----2-|--------2--5--------2------2-5-----2-| 
|-0------------3--5----0--------3-5---|-0------------3--5----0--------3-5---| 

|-------------------------------------|-------------------------------------|------| 
|-------------------------------------|-------------------------------------|------| 
|-------------------------------------|-------------------------------------|------| 
|-----2-------------------2-----------|-----2-------------------3-3-3-3-3-3-|------| 
|--------2--5--------2------2-5-----2-|--------2--5--------2----3-3-3-3-3-3-|------| 
|-0------------3--5----0--------3-5---|-0------------3--5----0--1-1-1-1-1-1-|------| 

||------------------------------------------------------|---------------------------------------------|| 
||------------------------------------------------------|---------------------------------------------|| 
|*----x---x---x---x---x---x------9-9-9-9-12-12-12-12-14-|----x---x---x---x---x---x------9-9-9-12-12-9-*| 
|*----x---x-4-x-7-x---x---x---9-------------------------|----x---x-4-x-7-x---x---x---9----------------*| 
||-2--x-2-x-2-x-5-x-5-x-7-x-9-7--7-7-7-7-10-10-10-10-12-|-2--x-2-x-2-x-5-x-5-x-7-x-9-7--7-7-7-10-10-7-|| 
||-0----0-----------3---5---7-0-------------------------|-0----0-----------3---5---7-0----------------|| 

|----------------------------|----------------------------|----------------------------|-----------------------| 
|----------------------------|----------------------------|----------------------------|-----------------------| 
|-----x-x-x-----x-x-x----x-x-|-----x-x-x-----x-x-x----x-x-|-----x-x-x-----x-x-x----x-x-|-----x-x-x-------------| 
|-----x-x-x-----x-x-x----x-x-|-----x-x-x-----x-x-x----x-x-|-----x-x-x-----x-x-x----x-x-|-----x-x-x-------------| 
|-10--------10--------10-----|-10--------10--------10-----|-10--------10--------10-----|-10--------9--9--9--9--| 
|-7h8-------7h8-------7h8----|-7h8-------7h8-------7h8----|-7h8-------7h8-------7h8----|-7h8-------10-10-10-10-| 

|------------------------------------------------------|---------------------------------------------| 
|------------------------------------------------------|---------------------------------------------| 
|----x---x---x---x---x---x------9-9-9-9-12-12-12-12-14-|----x---x---x---x---x---x------9-9-9-12-12-9-| 
|----x---x-4-x-7-x---x---x---9-------------------------|----x---x-4-x-7-x---x---x---9----------------| 
|-2--x-2-x-2-x-5-x-5-x-7-x-9-7--7-7-7-7-10-10-10-10-12-|-2--x-2-x-2-x-5-x-5-x-7-x-9-7--7-7-7-10-10-7-| 
|-0----0-----------3---5---7-0-------------------------|-0----0-----------3---5---7-0----------------| 

|------------------|-----------------|-----------------|----------------------------------| 
|------------------|-----------------|-----------------|----------------------------------| 
|------------------|-----------------|-----------------|--x-x---x---x---x---x---x-x---x---| 
|-2----------------|-----------------|-----------------|--x-x---x---x---x---x---x-x---x---| 
|-2----------------|-----------------|-----------------|----------------------------------| 
|-0----------------|-----------------|-----------------|----------------------------------| 
                                                                                           x4  
||-------------------|-------------------|-------------------|-------------------------------|| 
||-------------------|-------------------|-------------------|-------------------------------|| 
|*-------------------|-------------------|-------------------|-------------------------------*| 
|*-------------------|-------------------|-------------------|-------------------------------*| 
||-------------------|-------------5h7-7-|-------------------|-2-----2-----2-----2-----7-6-5-|| 
||-0--3-5-3--0-3/5/3-|-0--3-5-3--0-------|-0--3-5-3--0-3/5/3-|-0-x-x-0-x-x-0-x-x-0-x-x-5-4-3-|| 

||------------------------|------------------------|------------------------|-------------------------------|| 
||------------------------|------------------------|------------------------|-------------------------------|| 
|*------------------------|------------------7/9-9-|------------------------|-------------------------------*| 
|*----x---x-7-x-----------|----x---x-7-x-----------|----x---x-7-x-----------|-------------------------------*| 
||-2--x-5-x-5-x-5-x-5/7/5-|-2--x-5-x-5-x-5-x-5/7-7-|-2--x-5-x-5-x-5-x-5/7/5-|-2-----2-----2-----2-----7-6-5-|| 
||-0--x-3-x---x-3-x-3/5/3-|-0--x-3-x---x-3-x-------|-0--x-3-x---x-3-x-3/5/3-|-0-x-x-0-x-x-0-x-x-0-x-x-5-4-3-|| 

|-----| 
|-----| 
|-----| 
|-----| 
|-2---| 
|-0---| 
		  

See also:

tabs Ne-yo - Sexy love tabs India Arie - Get it together tabs Plain White T's - Rhythm Of Love tabs Matisyahu - King Without A Crown tabs Miley Cyrus - 7 Things tabs Panic! At The Disco - I write sins not tragedies
e-chords

Other versions:

tabs Rodrigo y Gabriela - The Russian Messenger
auto scroll beats size up size down change color hide chords drawings
tab show chords e-chords YouTube Clip e-chords hide all tabs e-chords go to top tab

share