Rodrigo y Gabriela

Cumbé

Rodrigo y Gabriela

tabs

by  ALYSLIMA

save to print version add songbook text version e-mail correct tuner
chordsukulelecavacokeyboardtabbassdrumsharmonicaflute Guitar Pro
close

there isn't a video lesson for this song

chords

Cumbé

	  		Intro 
e|-----------------------------------5-7-5-----------------------------------| 
B|--7------------------5--7-------7---------7-5------------------------------| 
G|-----4-4----4-7-4--7-------4-4---------------------------------------------| 
D|----------7----------------------------------------------------------------| 
A|---------------------------------------------------------------------------| 
E|---------------------------------------------------------------------------| 

e|---------------------------------------------------------------------------| 
B|--7------------------5--7----------------------3--5------------------------| 
G|-----4-4----4-7-4-7--------4-4--------2--2h4h5-----------------------------| 
D|----------7---------------------2h4h5--------------------------------------| 
A|---------------------------------------------------------------------------| 
E|---------------------------------------------------------------------------| 

e|-----------------------------------5-7-5--------------------------------------| 
B|--7------------------5--7-------7---------7-5---------------------------------| 
G|----4-4-----4-7-4--7-------4-4------------------------------------------------| 
D|----------7-------------------------------------------------------------------| 
A|------------------------------------------------------------------------------| 
E|------------------------------------------------------------------------------| 

e|--------------------------------------------------------------------------------| 
B|--7------------------5--5/7b-7b-7b-7b-7b~---------------------------------------| 
G|----4-4-----4-7-4--7------------------------------------------------------------| 
D|----------7---------------------------------------------------------------------| 
A|--------------------------------------------------------------------------------| 
E|--------------------------------------------------------------------------------| 

Verse 
e|--2h3h2-------0-0--0-2-3--2h3h2--------0-0--0------------------------------| 
B|--------3--0---------------------3--0---------3-2--------------------------| 
G|---------------------------------------------------------------------------| 
D|---------------------------------------------------------------------------| 
A|---------------------------------------------------------------------------| 
E|---------------------------------------------------------------------------| 

e|--2h3h2-------0-0--0-2-3--2h3h2-----0-0-0-0--------------------------------| 
B|--------3--0---------------------0----------3--2---------------------------| 
G|---------------------------------------------------------------------------| 
D|---------------------------------------------------------------------------| 
A|---------------------------------------------------------------------------| 
E|---------------------------------------------------------------------------| 

e|-----------------------------------------------------------0-2~--------2-0----| 
B|--5--0--0-5-5--5-7-5--3-------3-3--3-5-3--2-------2-2--2-3------1---1------4--| 
G|-------------------------4--4----------------3--3------------------2----------| 
D|------------------------------------------------------------------------------| 
A|------------------------------------------------------------------------------| 
E|------------------------------------------------------------------------------| 

e|---------------------------------------------------------------------------| 
B|--5--0--0-5-5--5-7-5--3-------3-3--3-5-3-------3------3-2------------------| 
G|-------------------------4--4----------------4------3------4~--------------| 
D|-------------------------------------------5------4------------------------| 
A|---------------------------------------------------------------------------| 
E|---------------------------------------------------------------------------| 

************************************ 

| h  Hammer-on 
| b  Bend 
| /  Slide up 
| ~  Vibrato 

************************************ 
		  

See also:

tabs Matisyahu - King Without A Crown tabs Miley Cyrus - 7 Things tabs Rihanna - Shut Up And Drive tabs All American Rejects - It ends tonight tabs Phoenix - Everything is everything tabs Panic! At The Disco - This Is Halloween
e-chords

Other versions:

tabs Rodrigo y Gabriela - Cumbé
auto scroll beats size up size down change color hide chords drawings
tab show chords e-chords YouTube Clip e-chords hide all tabs e-chords go to top tab

share