Rod Stewart

home > Rod Stewart

When I Need You Tab

Rod Stewart

Difficulty: EasyEasy

by PAULLET3

tuner correct add songbook print version text version save to e-mail
chordsukulelecavacokeyboardtabbassdrumsharmonicsflute Guitar Pro
chords

When I Need You

Year: 1996 - Album: If We Fall in Love Tonight

  		


e|------------------------------------------------------------------------------------------------| 
B|-2-----2---2---2--5--3--2-------5-----------5---------------2--------2--------------0------0----| 
G|-2-----2-----2----------------4---5-------4---4-------------2--------2--------------1------1----| 
D|---------------------------------------6-------6---------4--------4----4---------2------2---1---| 
A|-2---------2------2--2--2-------------------------------4--------4--------4------2-----2-------2| 
E|----------------------------4--------4----------------2--------2--------------0-------0---------| 

Chorus 

Miles and miles of empty space in between us 
A telephone can't take the place of your smile 


e|------------------------------------------------------| 
B|--------2--------------0------------2-----------0-----| 
G|--2---2---2------1---1---1----2---2---2---1---1---1---| 
D|----4-------4------2-------2----4-------4---2-------2-| 
A|------------------------------------------------------| 
E|--2------------0--------------2-----------0-----------| 

But you know I wont be traveling for ever 

e|-------------------------------| 
B|--5-----5-------0-----0--------| 
G|----2-----2-------1-----1------| 
D|------2-----2-------2-----2----| 
A|-0-----------------------------| 
E|--------0--------0----0--------| 

It's cold out, but hold out and do like I do 

e|--------------------------------5--3--2-| 
B|--2-----2----2-----2--------------------| 
G|----2-----2----2---2--------------------| 
D|------4----4-----4----------------------| 
A|--------------------------------0--0--0-| 
E|--2-----2----2-----2--------------------| 


repeat verse & Chorus 
	  

Search Paypal
auto scroll beats size up size down change color hide chords drawings
tab show chords e-chords YouTube Clip e-chords hide all tabs e-chords go to top tab