Robin Pecknold

Blues Run The Game

Robin Pecknold

tabs

by  CARLLUZ

save to print version add songbook text version e-mail correct tuner
chordsukulelecavacokeyboardtabbassdrumsharmonicaflute Guitar Pro
close

there isn't a video lesson for this song

chords

Blues Run The Game

	  		Intro: 


   0:00 
     
e |-----0-----0-0-0-0-----0---0-0---| 
C#|-----3-----3-3-3-3-----3---3-3---| 
G#|-----0-----0-0-0-0h1---1---1-1p0-| X3 
E |-0---0-----0-0-0-0-----0---0-0---| 
B |-----0-----0-0-0-0h2---2---2-2p0-| 
E |-----0-----0-0-0-0-----0---0-0---| 
    *   *   *   *   *   *   *   *      


verse 1: 

    Try another city baby 
    Another town 
    Wherever I have gone 
e |-----0-----0-0-0-0-----0---0-0---| 
C#|-----3-----3-3-3-3-----3---3-3---| 
G#|-----0-----0-0-0-0h1---1---1-1p0-| X3 
E |-0---0-----0-0-0-0-----0---0-0---| 
B |-----0-----0-0-0-0h2---2---2-2p0-| 
E |-----0-----0-0-0-0-----0---0-0---| 
    *   *   *   *   *   *   *   *   


    Wherever I've been and gone 
e |-----0-----0-0-0-0---0---0---0---| 
C#|-----3-----3-3-3-3---3---3---3---| 
G#|-----0-----0-0-0-1---0---1---0---| 
E |-0---0-----0-0-0-2---0---0---0---| 
B |-----0-----0-0-0-0---0---2---0---| 
E |-----0-----0-0-0-0---0---0---0---| 
    *   *   *   *   *   *   *   *     


    Wherever I have gone 
e |-----0-----0-0-0-0-----0---0-0---| 
C#|-----3-----3-3-3-3-----3---3-3---| 
G#|-----0-----0-0-0-0h1---1---1-1p0-|   
E |-0---0-----0-0-0-0-----0---0-0---| 
B |-----0-----0-0-0-0h2---2---2-2p0-| 
E |-----0-----0-0-0-0-----0---0-0---| 
    *   *   *   *   *   *   *   *  
                                
         
    The blues come followin' down 
e |-2---0-----0-0-0-0-----0---0-0-0-| 
C#|-0---0h2---2-2-2-2h3---3---3-3-3-| 
G#|-1---1-----1-1-1-1-----1---1-1-1-| 
E |-2---2-----2-2-2-2-----2---2-2-2-| 
B |-0---0-----0-0-0-0-----0---0-0-0-| 
E |-0---0-----0-0-0-0-----0---0-0-0-| 
    *   *   *   *   *   *   *   *    


verse 2: 

    Livin' is a gamble baby 
    Lovin's much the same 
    Wherever I have played 
e |-----0-----0-0-0-0-----0---0-0---| 
C#|-----3-----3-3-3-3-----3---3-3---| 
G#|-----0-----0-0-0-1-----1---1-1p0-| X4 
E |-0---0-----0-0-0-0-----0---0-0---| 
B |-----0-----0-0-0-2-----2---2-2p0-| 
E |-----0-----0-0-0-0-----0---0-0---| 
    *   *   *   *   *   *   *   *   


    Whenever I've thrown them dice 
e |-----0-----0-0-0-0---0---0---0---| 
C#|-----3-----3-3-3-3---3---3---3---| 
G#|-----0-----0-0-0-1---0---1---0---| 
E |-0---0-----0-0-0-2---0---0---0---| 
B |-----0-----0-0-0-0---0---2---0---| 
E |-----0-----0-0-0-0---0---0---0---| 
    *   *   *   *   *   *   *   *     


    Wherever I have played 
e |-----0-----0-0-0-0-----0---0-0---| 
C#|-----3-----3-3-3-3-----3---3-3---| 
G#|-----0-----0-0-0-1-----1---1-1p0-|   
E |-0---0-----0-0-0-0-----0---0-0---| 
B |-----0-----0-0-0-2-----2---2-2p0-| 
E |-----0-----0-0-0-0-----0---0-0---| 
    *   *   *   *   *   *   *   *  
                                
                 
    The blues have run the game 
e |-2---0-----0---0-0-----0---0-0-0-| 
C#|-0---0h2---2---2-2h3---3---3-3-3-| 
G#|-1---1-----1---1-1-----1---1-1-1-| 
E |-2---2-----2---2-2-----2---2-2-2-| 
B |-0---0-----0---0-0-----0---0-0-0-| 
E |-0---0-----0---0-0-----0---0-0-0-| 
    *   *   *   *   *   *   *   *    


verse 3: 

    Maybe tomorrow honey 
    Someplace down the line 
    I'll wake up older 
e |-----0-----0-0-0-0-----0---0-0---| 
C#|-----3-----3-3-3-3-----3---3-3---| 
G#|-----0-----0-0-0-0h1---1---1-1p0-| X4 
E |-0---0-----0-0-0-0-----0---0-0---| 
B |-----0-----0-0-0-0h2---2---2-2p0-| 
E |-----0-----0-0-0-0-----0---0-0---| 
    *   *   *   *   *   *   *   *   


    So much older, mama 
e |-----0-----0-0-0-0---0---0---0---| 
C#|-----3-----3-3-3-3---3---3---3---| 
G#|-----0-----0-0-0-1---0---1---0---| 
E |-0---0-----0-0-0-2---0---0---0---| 
B |-----0-----0-0-0-0---0---2---0---| 
E |-----0-----0-0-0-0---0---0---0---| 
    *   *   *   *   *   *   *   *     


    I'll wake up older 
e |-----0-----0-0-0-0-----0---0-0---| 
C#|-----3-----3-3-3-3-----3---3-3---| 
G#|-----0-----0-0-0-1-----1---1-1p0-|   
E |-0---0-----0-0-0-0-----0---0-0---| 
B |-----0-----0-0-0-2-----2---2-2p0-| 
E |-----0-----0-0-0-0-----0---0-0---| 
    *   *   *   *   *   *   *   *  
                                
                 
    And I'll just stop all my tryin' 
e |-2---2-----0-0-0-| 
C#|-0---0-----3-3-3-| 
G#|-1---1-----1-1-1-| 
E |-2---2-----2-2-2-| 
B |-0---0-----0-0-0-| 
E |-0---0-----0-0-0-| 
    *   *   *   *     


verse 4: Pretty much the same idea 

    Catch a boat to England baby 
    Maybe to Spain 
    Wherever I have gone 
    Wherever I've been and gone 
    Wherever I have gone 
    The blues have run the game 


Outro: 


1:46 

e |-----0-----0-0-0-0-----0---0-0---| 
C#|-----3-----3-3-3-3-----3---3-3---| 
G#|-----0-----0-0-0-0h1---1---1-1p0-| X3 
E |-0---0-----0-0-0-0-----0---0-0---| 
B |-----0-----0-0-0-0h2---2---2-2p0-| 
E |-----0-----0-0-0-0-----0---0-0---| 
    *   *   *   *   *   *   *   *                  



e |-0---2-----2---2-0-----0-0-----0------| 
C#|-0---0-----0---0-0h2---2-2h3---3------| 
G#|-1---1-----1---1-1-----1-1-----1------| 
E |-2---2-----2---2-2-----2-2-----2--0---| 
B |-0---0-----0---0-0-----0-0-----0------| 
E |-0---0-----0---0-0-----0-0-----0------| 
    *   *   *   *   *   *   *   *    * 
		  

See also:

tabs Ryan Cabrera - On the way down tabs Maroon 5 - She will be loved (intro) tabs Black Eyed Peas - My humps/ver.2 tabs Pink - Who knew tabs Phantom Planet - California (ver. 2) tabs Michael Jackson - 3 Michael Jackson Riffs
e-chords

Other versions:

tabs Robin Pecknold - Blues Run The Game
auto scroll beats size up size down change color hide chords drawings
tab show chords e-chords YouTube Clip e-chords hide all tabs e-chords go to top tab

share