Rob Scallon

home > Rob Scallon

Metal Warm Up Riff Tab

Rob Scallon

Difficulty: nolevelnolevel

by tercmoraes

tuner correct add songbook print version text version save to e-mail
chordsukulelecavacokeyboardtabbassdrumsharmonicsflute Guitar Pro
chords

Metal Warm Up Riff

  		Title: Metal warm up riff 
Tempo = 170 
Electric Guitar 

Legend 
L - tied note 
x - dead note 
h - hammer on/pull off 
b - bend 
s - slide 
~ - vibrato 
g - ghost note 
> - accentuated note 
t - trill 
M - palm mute 
. - staccato 
P - popping (bass) 
S - slapping (bass) 
+ - tapping 
W - wide vibrato 
< - fade in 
w - whammy bar 
= - tremolo picking 
v - brush up 
^ - brush down 
V - pick stroke up 
n - pick stroke down 


E ||---------------------------| 
B ||---------------------------| 
G ||o--------------------------| 
D ||o--------------------------| 
A ||-3--------3--------3-------| 
E ||---5M-4M----5M-4M----5M---| 


----------------------------------------------------| 
----------------------------------------------------| 
----------------------------------------------------| 
----------------------------------------------------| 
--------3-----------------3M-3M-3M-3M-3M-3M-3M-3M---| 
--4M----------5M----4M------------------------------| 


----------------------------|---------------------------||| 
----------------------------|---------------------------||| 
----------------------------|--------------------------o||| 
--------------------2-------|-----3--------2-----------o||| 
--3--------3----------------|---------------------------||| 
---5M-4M----5M-4M----5M---|--4M----5M-4M----5M-4M-5M--||| 


---------------------------| 
---------------------------| 
o--------------------------| 
o--------------------------| 
-2--------2--------2-------| 
----1M-0M----1M-0M----1M---| 


----------------------------------------------------| 
----------------------------------------------------| 
----------------------------------------------------| 
----------------------------------------------------| 
--------2-----------------3M-3M-3M-3M-3M-3M-3M-3M---| 
--0M----------1M----0M------------------------------| 


----------------------------|---------------------------||| 
----------------------------|---------------------------||| 
----------------------------|--------------------------o||| 
--------------------2-------|-----3--------2-----------o||| 
--2--------2----------------|---------------------------||| 
---1M-0M----1M-0M----1M---|--0M----1M-0M----1M-0M-1M--||| 
	  

Search Paypal
auto scroll beats size up size down change color hide chords drawings
tab show chords e-chords YouTube Clip e-chords hide all tabs e-chords go to top tab