Rob Scallon

home > Rob Scallon

Iphone Beard Metal Tab

Rob Scallon

Difficulty: nolevelnolevel

by tarikike

tuner correct add songbook print version text version save to e-mail
chordsukulelecavacokeyboardtabbassdrumsharmonicsflute Guitar Pro
chords

Iphone Beard Metal

  		

Legend 
L - tied note 
x - dead note 
h - hammer on/pull off 
b - bend 
s - slide 
~ - vibrato 
g - ghost note 
> - accentuated note 
t - trill 
M - palm mute 
. - staccato 
P - popping (bass) 
S - slapping (bass) 
+ - tapping 
W - wide vibrato 
< - fade in 
w - whammy bar 
= - tremolo picking 
v - brush up 
^ - brush down 
V - pick stroke up 
n - pick stroke down 


D |----------------------------| 
A |----------------------------| 
F |----------------------------| 
C |----------------------------| 
G |--7-----------------6-------| 
D |--5-----------------4-------| 


----------------------------------------------------| 
----------------------------------------------------| 
----------------------------------------------------| 
----------------------------------------------------| 
--------------------7--8--------6--7--------2--3----| 
--5M-8M-5M-0M-5M-0M-------0M-4M-------0M-1M---------| 


--------------------------------------------------------------------------------| 
--------------------------------------------------------------------------------| 
--------------------------------------------------------------------------------| 
--------------------2--------3--------------------------6--------7--------------| 
--------------------------------------------------------------------------------| 
--0M-------1M-------------------------0M-------4M-------------------------0M----| 


--------------------------------------------------------------------| 
--------------------------------------------------------------------| 
--------------------------------------------------------------------| 
--------------------------------------------------------------------| 
--------------------------------------------------------------------| 
0M----0M----0M----0M----0M----0-----------------0M------------------| 


----------------------------------------------------| 
----------------------------------------------------| 
----------------------------------------------------| 
----------------------------------------------------| 
--------------------7--8--------6--7--------2--3----| 
--5M-8M-5M-0M-5M-0M-------0M-4M-------0M-1M---------| 


----------------------------------------------------| 
----------------------------------------------------| 
----------------------------------------------------| 
--------2--3--------2--3--2-------------------------| 
--------------------2--3--2-------------------------| 
--0M-1M-------0M-1M-------------0s----12s---0-------| 


----------------------------------------------------| 
----------------------------------------------------| 
----------------------------------------------------| 
----------------------------------------------------| 
--------------------7--8--------6--7--------2--3----| 
--5M-8M-5M-0M-5M-0M-------0M-4M-------0M-1M---------| 


--------------------------------------------------------------------------------| 
--------------------------------------------------------------------------------| 
--------------------------------------------------------------------------------| 
--------------------2--------3--------------------------6--------7--------------| 
--------------------------------------------------------------------------------| 
--0M-------1M-------------------------0M-------4M-------------------------0M----| 


--------------------------------------------------------------------| 
--------------------------------------------------------------------| 
--------------------------------------------------------------------| 
--------------------------------------------------------------------| 
--------------------------------------------------------------------| 
0M----0M----0M----0M----0M----0-----------------0M------------------| 


----------------------------------------------------| 
----------------------------------------------------| 
----------------------------------------------------| 
----------------------------------------------------| 
--------------------7--8--------6--7--------2--3----| 
--5M-8M-5M-0M-5M-0M-------0M-4M-------0M-1M---------| 


----------------------------------------------------| 
----------------------------------------------------| 
----------------------------------------------------| 
--------2--3--------2--3--2-------------------------| 
--------------------2--3--2-------------------------| 
--0M-1M-------0M-1M-------------0M----0-------------| 


----------------------------------------------------| 
----------------------------------------------------| 
----------------------------------------------------| 
----------------------------------------------------| 
--0--------0M-------0M----0--------0M-------0M------| 
--1--------1M-------1M----1--------1M-------1M------| 


--------------------------------------------------------------------------------| 
--------------------------------------------------------------------------------| 
--------------------------------------------------------------------------------| 
--------------------------------------------------------------------------------| 
--------------------------------------------------------2--------3--------------| 
--1M-------4M-------1M-------0M-------1M-------0M-------------------------0M----| 


--------------------------------------------------------------------| 
--------------------------------------------------------------------| 
--------------------------------------------------------------------| 
------------2--------3----------------------------------------------| 
--------------------------------------------------------------------| 
---1M-------------------------0M----0M----0M----0M----0M----0M------| 


----------------------------------------------------| 
----------------------------------------------------| 
----------------------------------------------------| 
----------------------------------------------------| 
--0--------0M-------0M----0--------0M-------0M------| 
--1--------1M-------1M----1--------1M-------1M------| 


----------------------------------------------------| 
----------------------------------------------------| 
----------------------------------------------------| 
----------------------------------------------------| 
--------------------2--3--2b----------2-------------| 
--1M-4M-1M-0M-1M-0M-------------0M----0-----0M------| 


----------------------------------------------------| 
----------------------------------------------------| 
----------------------------------------------------| 
----------------------------------------------------| 
--0--------0M-------0M----0--------0M-------0M------| 
--1--------1M-------1M----1--------1M-------1M------| 


--------------------------------------------------------------------------------| 
--------------------------------------------------------------------------------| 
--------------------------------------------------------------------------------| 
--------------------------------------------------------------------------------| 
--------------------------------------------------------2--------3--------------| 
--1M-------4M-------1M-------0M-------1M-------0M-------------------------0M----| 


--------------------------------------------------------------------| 
--------------------------------------------------------------------| 
--------------------------------------------------------------------| 
------------2--------3----------------------------------------------| 
--------------------------------------------------------------------| 
---1M-------------------------0M----0M----0M----0M----0M----0M------| 


----------------------------------------------------| 
----------------------------------------------------| 
----------------------------------------------------| 
----------------------------------------------------| 
--0--------0M-------0M----0--------0M-------0M------| 
--1--------1M-------1M----1--------1M-------1M------| 


----------------------------------------------------| 
----------------------------------------------------| 
----------------------------------------------------| 
----------------------------------------------------| 
--------------------7--8--------6--7--------2--3----| 
--5M-8M-5M-0M-5M-0M-------0M-4M-------0M-1M---------| 


----------------------------------------------------------------------------| 
----------------------------------------------------------------------------| 
----------------------------------------------------------------------------| 
--------2--3--------2--3--2-------------------------------------------------| 
--------------------2--3--2-----------------------------------6-------------| 
--0M-1M-------0M-1M-------------------------------------------4-------------| 


--------------------------------------------------------------------------------| 
--------------------------------------------------------------------------------| 
--------------------------------------------------------------------------------| 
--------------------------------------------------------------------------------| 
--7M----------------------7M----------------------8M----------------------7-----| 
--5M----------------------5M----------------------6M----------------------5-----| 


--------------------------------------------------------------------| 
--------------------------------------------------------------------| 
--------------------------------------------------------------------| 
--------------------------------------------------------------------| 
--------------------------------------------------------------------| 
------------------------------5M-------8M-------5M-------0M---------| 


--------------------------------------------------------------------------------| 
--------------------------------------------------------------------------------| 
--------------------------------------------------------------------------------| 
--------------------------------------------------------------------------------| 
--------------------7--------8--------------------------6--------7--------------| 
--5M-------0M-------------------------0M-------4M-------------------------1>----| 


--------------------------------------------------------------------| 
--------------------------------------------------------------------| 
--------------------------------------------------------------------| 
--------------------------------------------------------------------| 
------------------------------3s----------------6-------------------| 
1M----1M----1>----1M----1M----1s----------------4-------------------| 


--------------------------------------------------------------------------------| 
--------------------------------------------------------------------------------| 
--------------------------------------------------------------------------------| 
--------------------------------------------------------------------------------| 
--7M----------------------7M----------------------8M----------------------7-----| 
--5M----------------------5M----------------------6M----------------------5-----| 


--------------------------------------------------------------------| 
--------------------------------------------------------------------| 
--------------------------------------------------------------------| 
--------------------------------------------------------------------| 
--------------------------------------------------------------------| 
------------------------------5M-------8M-------5M-------0M---------| 


----------------------------------------------------| 
----------------------------------------------------| 
----------------------------------------------------| 
-----------------------------------2s-3-----6s-7----| 
--------7s-8-----6s-7-----2s-3----------------------| 
--5M-0M-------4M-------1M-------1M-------4M---------| 


--------------------------------------------------------------------------------| 
--------------------------------------------------------------------------------| 
--------------------------------------------------------------------------------| 
--------------------------------------------------------------------------------| 
--7M----------------------7M----------------------8M----------------------7-----| 
--5M----------------------5M----------------------6M----------------------5-----| 


--------------------------------------------------------------------| 
--------------------------------------------------------------------| 
--------------------------------------------------------------------| 
--------------------------------------------------------------------| 
--------------------------------------------------------------------| 
------------------------------5M-------8M-------5M-------0M---------| 


--------------------------------------------------------------------------------| 
--------------------------------------------------------------------------------| 
--------------------------------------------------------------------------------| 
--------------------------------------------------------------------------------| 
--------------------7--------8--------------------------6--------7--------------| 
--5M-------0M-------------------------0M-------4M-------------------------1>----| 


--------------------------------------------------------------------| 
--------------------------------------------------------------------| 
--------------------------------------------------------------------| 
--------------------------------------------------------------------| 
------------------------------3s----------------6-------------------| 
1M----1M----1>----1M----1M----1s----------------4-------------------| 


--------------------------------------------------------------------------------| 
--------------------------------------------------------------------------------| 
--------------------------------------------------------------------------------| 
--------------------------------------------------------------------------------| 
--7M----------------------7M----------------------8M----------------------7-----| 
--5M----------------------5M----------------------6M----------------------5-----| 


--------------------------------------------------------------------| 
--------------------------------------------------------------------| 
--------------------------------------------------------------------| 
--------------------------------------------------------------------| 
--------------------------------------------------------------------| 
------------------------------5M-------8M-------5M-------0M---------| 


----------------------------------------------------| 
----------------------------------------------------| 
----------------------------------------------------| 
-----------------------------------2s-3-----6s-7----| 
--------7s-8-----6s-7-----2s-3----------------------| 
--5M-0M-------4M-------1M-------1M-------4M---------| 


--------------------------------------------------------------------------------| 
--------------------------------------------------------------------------------| 
--------------------------------------------------------------------------------| 
--------------------------------------------------------------------------------| 
--2-----------------------2M----------------------2M----------------------2h----| 
--0-----------------------0M----------------------0M----------------------------| 


--------------------------------------------------------------------| 
--------------------------------------------------------------------| 
--------------------------------------------------------------------| 
--------------------------------------------------------------------| 
---3h-------2-----------------2-----------------2h-------3----------| 
---------------------4M----------------4M---------------------------| 


----------------------------------------------------| 
----------------------------------------------------| 
----------------------------------------------------| 
-----2s-3-------------------------------------------| 
--------------2s-3----------------------------------| 
--0M-------0M-------0M-4s-5--0M-1s-4--0M-0h-1h-0----| 


--------------------------------------------------------------------------------| 
--------------------------------------------------------------------------------| 
--------------------------------------------------------------------------------| 
--------------------------------------------------------------------------------| 
--2-----------------------2M----------------------2M----------------------2h----| 
--0-----------------------0M----------------------0M----------------------------| 


--------------------------------------------------------------------| 
--------------------------------------------------------------------| 
--------------------------------------------------------------------| 
--------------------------------------------------------------------| 
---3h-------2-----------------2-----------------2h-------3----------| 
---------------------4M----------------4M---------------------------| 


--------------------------------------------------------------------------------| 
--------------------------------------------------------------------------------| 
--------------------------------------------------------------------------------| 
--------------------2s-------3--------------------------------------------------| 
--------------------------------------------------------2s-------3--------------| 
--0M----0M----0M----------------------0M----0M----0M----------------------0M----| 


--------------------------------------------------------------------| 
--------------------------------------------------------------------| 
--------------------------------------------------------------------| 
--------------------------------------------------------------------| 
--------------------------------------------------------------------| 
0M----0M----1s-------4--------0M----0M----0M----1s-------0----------| 


--------------------------------------------------------------------------------| 
--------------------------------------------------------------------------------| 
--------------------------------------------------------------------------------| 
--------------------------------------------------------------------------------| 
--7M----------------------7M----------------------8M----------------------7-----| 
--5M----------------------5M----------------------6M----------------------5-----| 


--------------------------------------------------------------------| 
--------------------------------------------------------------------| 
--------------------------------------------------------------------| 
--------------------------------------------------------------------| 
--------------------------------------------------------------------| 
------------------------------5M-------8M-------5M-------0M---------| 


--------------------------------------------------------------------------------| 
--------------------------------------------------------------------------------| 
--------------------------------------------------------------------------------| 
--------------------------------------------------------------------------------| 
--------------------7--------8--------------------------6--------7--------------| 
--5M-------0M-------------------------0M-------4M-------------------------1>----| 


--------------------------------------------------------------------| 
--------------------------------------------------------------------| 
--------------------------------------------------------------------| 
--------------------------------------------------------------------| 
------------------------------3s----------------6-------------------| 
1M----1M----1>----1M----1M----1s----------------4-------------------| 


--------------------------------------------------------------------------------| 
--------------------------------------------------------------------------------| 
--------------------------------------------------------------------------------| 
--------------------------------------------------------------------------------| 
--7M----------------------7M----------------------8M----------------------7-----| 
--5M----------------------5M----------------------6M----------------------5-----| 


--------------------------------------------------------------------| 
--------------------------------------------------------------------| 
--------------------------------------------------------------------| 
--------------------------------------------------------------------| 
--------------------------------------------------------------------| 
------------------------------5M-------8M-------5M-------0M---------| 


----------------------------------------------------| 
----------------------------------------------------| 
----------------------------------------------------| 
-----------------------------------2s-3-----6s-7----| 
--------7s-8-----6s-7-----2s-3----------------------| 
--5M-0M-------4M-------1M-------1M-------4M---------| 


--------------------------------------------------------------------------------| 
--------------------------------------------------------------------------------| 
--------------------------------------------------------------------------------| 
--------------------------------------------------------------------------------| 
--2-----------------------2M----------------------2M----------------------2h----| 
--0-----------------------0M----------------------0M----------------------------| 


--------------------------------------------------------------------| 
--------------------------------------------------------------------| 
--------------------------------------------------------------------| 
--------------------------------------------------------------------| 
---3h-------2-----------------2-----------------2h-------3----------| 
---------------------4M----------------4M---------------------------| 


----------------------------------------------------| 
----------------------------------------------------| 
----------------------------------------------------| 
-----2s-3-------------------------------------------| 
--------------2s-3----------------------------------| 
--0M-------0M-------0M-4s-5--0M-1s-4--0M-0h-1h-0----| 


--------------------------------------------------------------------------------| 
--------------------------------------------------------------------------------| 
--------------------------------------------------------------------------------| 
--------------------------------------------------------------------------------| 
--2-----------------------2M----------------------2M----------------------2h----| 
--0-----------------------0M----------------------0M----------------------------| 


--------------------------------------------------------------------| 
--------------------------------------------------------------------| 
--------------------------------------------------------------------| 
--------------------------------------------------------------------| 
---3h-------2-----------------2-----------------2h-------3----------| 
---------------------4M----------------4M---------------------------| 


--------------------------------------------------------------------------------| 
--------------------------------------------------------------------------------| 
--------------------------------------------------------------------------------| 
--------------------2s-------3--------------------------------------------------| 
--------------------------------------------------------2s-------3--------------| 
--0M----0M----0M----------------------0M----0M----0M----------------------0M----| 


--------------------------------------------------------------------| 
--------------------------------------------------------------------| 
--------------------------------------------------------------------| 
--------------------------------------------------------------------| 
--------------------------------------------------------------------| 
0M----0M----1s-------4--------0M----0M----0M----1s-------0----------| 


--------------------------------------------------------------------------------| 
--------------------------------------------------------------------------------| 
--------------------------------------------------------------------------------| 
--------------------------------------------------------------------------------| 
--2-----------------------2M----------------------2M----------------------2h----| 
--0-----------------------0M----------------------0M----------------------------| 


--------------------------------------------------------------------| 
--------------------------------------------------------------------| 
--------------------------------------------------------------------| 
--------------------------------------------------------------------| 
---3h-------2-----------------2-----------------2h-------3----------| 
---------------------4M----------------4M---------------------------| 


----------------------------------------------------| 
----------------------------------------------------| 
----------------------------------------------------| 
-----2s-3-------------------------------------------| 
--------------2s-3----------------------------------| 
--0M-------0M-------0M-4s-5--0M-1s-4--0M-0h-1h-0----| 


--------------------------------------------------------------------------------| 
--------------------------------------------------------------------------------| 
--------------------------------------------------------------------------------| 
--------------------------------------------------------------------------------| 
--2-----------------------2M----------------------2M----------------------2h----| 
--0-----------------------0M----------------------0M----------------------------| 


--------------------------------------------------------------------|| 
--------------------------------------------------------------------|| 
--------------------------------------------------------------------|| 
--------------------------------------------------------------------|| 
---3h-------2-----------------2-----------------2h-------3----------|| 
---------------------4M----------------4M---------------------------|| 


---------------------------| 
---------------------------| 
o--------------------------| 
o--------------------------| 
-7-----------------6-------| 
-5-----------------4-------| 


---------------------------------------------------------------------------|| 
---------------------------------------------------------------------------|| 
--------------------------------------------------------------------------o|| 
--------------------------------------------------------------------------o|| 
--------------------6-----3M----3M----6>----3M----5>----4M----3M----2M-----|| 
--4>-4M-4M-4>-4M-4M-4-----1M----1M----4>----1M----3>----2M----1M----0M-----|| 


--------------------------------------------------------------------------------| 
--------------------------------------------------------------------------------| 
--------------------------------------------------------------------------------| 
--------------------------------------------------------------------------------| 
--------------------------------------7-----------------------------------------| 
--5>----5M----5M----5>----5M----5M----5-----------------5M-------7M-------8M----| 


--------------------------------------------------------------------| 
--------------------------------------------------------------------| 
--------------------------------------------------------------------| 
--------------------------------------------------------------------| 
--------------------------------------------------------------------| 
---7M-------5M-------7M-------8M-------7M-------4b------------------| 


----------------------------------------------------------------------------| 
----------------------------------------------------------------------------| 
----------------------------------------------------------------------------| 
----------------------------------------------------------------------------| 
--------------------6-----3M----3M----6>----3M----5>----4M----3M----2M------| 
--4>-4M-4M-4>-4M-4M-4-----1M----1M----4>----1M----3>----2M----1M----0M------| 


--------------------------------------------------------------------------------| 
--------------------------------------------------------------------------------| 
--------------------------------------------------------------------------------| 
--------------------------------------------------------------------------------| 
--------------------------------------7-----------------------------------------| 
--5>----5M----5M----5>----5M----5M----5-----------------5M-------7M-------8M----| 


--------------------------------------------------------------------| 
--------------------------------------------------------------------| 
--------------------------------------------------------------------| 
--------------------------------------------------------------------| 
--------------------------------------------------------------------| 
---7M-------5M-------7M-------8M-------7M-------4b------------------| 


----------------------------------------------------------------------------| 
----------------------------------------------------------------------------| 
----------------------------------------------------------------------------| 
----------------------------------------------------------------------------| 
--------------------6-----3M----3M----6>----3M----5>----4M----3M----2M------| 
--4>-4M-4M-4>-4M-4M-4-----1M----1M----4>----1M----3>----2M----1M----0M------| 


--------------------------------------------------------------------------------| 
--------------------------------------------------------------------------------| 
--------------------------------------------------------------------------------| 
--------------------------------------------------------------------------------| 
--------------------------------------7-----------------------------------------| 
--5>----5M----5M----5>----5M----5M----5-----------------5M-------7M-------8M----| 


--------------------------------------------------------------------| 
--------------------------------------------------------------------| 
--------------------------------------------------------------------| 
--------------------------------------------------------------------| 
--------------------------------------------------------------------| 
---7M-------5M-------7M-------8M-------7M-------4b------------------| 


----------------------------------------------------------------------------| 
----------------------------------------------------------------------------| 
----------------------------------------------------------------------------| 
----------------------------------------------------------------------------| 
--------------------6-----3M----3M----6>----3M----5>----4M----3M----2M------| 
--4>-4M-4M-4>-4M-4M-4-----1M----1M----4>----1M----3>----2M----1M----0M------| 


--------------------------------------------------------------------------------| 
--------------------------------------------------------------------------------| 
--------------------------------------------------------------------------------| 
--------------------------------------------------------------------------------| 
--------------------------------------7-----------------------------------------| 
--5>----5M----5M----5>----5M----5M----5-----------------5M-------7M-------8M----| 


--------------------------------------------------------------------| 
--------------------------------------------------------------------| 
--------------------------------------------------------------------| 
--------------------------------------------------------------------| 
--------------------------------------------------------------------| 
---7M-------5M-------7M-------8M-------7M-------4b------------------| 


----------------------------------------------------------------------------| 
----------------------------------------------------------------------------| 
----------------------------------------------------------------------------| 
----------------------------------------------------------------------------| 
--------------------6-----3M----3M----6>----3M----5>----4M----3M----2M------| 
--4>-4M-4M-4>-4M-4M-4-----1M----1M----4>----1M----3>----2M----1M----0M------| 


--------------------------------------------------------------------------------| 
--------------------------------------------------------------------------------| 
--------------------------------------------------------------------------------| 
--------------------------------------------------------------------------------| 
--------------------------------------7-----------------------------------------| 
--5>----5M----5M----5>----5M----5M----5-----------------5M-------7M-------8M----| 


--------------------------------------------------------------------| 
--------------------------------------------------------------------| 
--------------------------------------------------------------------| 
--------------------------------------------------------------------| 
--------------------------------------------------------------------| 
---7M-------5M-------7M-------8M-------7M-------4b------------------| 


----------------------------------------------------------------------------| 
----------------------------------------------------------------------------| 
----------------------------------------------------------------------------| 
----------------------------------------------------------------------------| 
--------------------6-----3M----3M----6>----3M----5>----4M----3M----2M------| 
--4>-4M-4M-4>-4M-4M-4-----1M----1M----4>----1M----3>----2M----1M----0M------| 


--------------------------------------------------------------------------------| 
--------------------------------------------------------------------------------| 
--------------------------------------------------------------------------------| 
--------------------------------------------------------------------------------| 
--------------------------------------7-----------------------------------------| 
--5>----5M----5M----5>----5M----5M----5-----------------5M-------7M-------8M----| 


--------------------------------------------------------------------| 
--------------------------------------------------------------------| 
--------------------------------------------------------------------| 
--------------------------------------------------------------------| 
--------------------------------------------------------------------| 
---7M-------5M-------7M-------8M-------7M-------4b------------------| 


----------------------------------------------------------------------------| 
----------------------------------------------------------------------------| 
----------------------------------------------------------------------------| 
----------------------------------------------------------------------------| 
--------------------6-----3M----3M----6>----3M----5>----4M----3M----2M------| 
--4>-4M-4M-4>-4M-4M-4-----1M----1M----4>----1M----3>----2M----1M----0M------| 


--------------------------------------------------------------------------------| 
--------------------------------------------------------------------------------| 
--------------------------------------------------------------------------------| 
--------------------------------------------------------------------------------| 
--------------------------------------7-----------------------------------------| 
--5>----5M----5M----5>----5M----5M----5-----------------5M-------7M-------8M----| 


--------------------------------------------------------------------| 
--------------------------------------------------------------------| 
--------------------------------------------------------------------| 
--------------------------------------------------------------------| 
--------------------------------------------------------------------| 
---7M-------5M-------7M-------8M-------7M-------4b------------------| 


----------------------------------------------------------------------------| 
----------------------------------------------------------------------------| 
----------------------------------------------------------------------------| 
----------------------------------------------------------------------------| 
--------------------6-----3M----3M----6>----3M----5>----4M----3M----2M------| 
--4>-4M-4M-4>-4M-4M-4-----1M----1M----4>----1M----3>----2M----1M----0M------| 


--------------------------------------------------------------------------------| 
--------------------------------------------------------------------------------| 
--------------------------------------------------------------------------------| 
--------------------------------------------------------------------------------| 
--------------------------------------7-----------------------------------------| 
--5>----5M----5M----5>----5M----5M----5-----------------5M-------7M-------8M----| 


--------------------------------------------------------------------| 
--------------------------------------------------------------------| 
--------------------------------------------------------------------| 
--------------------------------------------------------------------| 
--------------------------------------------------------------------| 
---7M-------5M-------7M-------8M-------7M-------4b------------------| 


----------------------------------------------------------------------------| 
----------------------------------------------------------------------------| 
----------------------------------------------------------------------------| 
----------------------------------------------------------------------------| 
--------------------6-----3M----3M----6>----3M----5>----4M----3M----2M------| 
--4>-4M-4M-4>-4M-4M-4-----1M----1M----4>----1M----3>----2M----1M----0M------| 


----------------------------|----|----|----|----|----|----|----|----|----|----| 
----------------------------|----|----|----|----|----|----|----|----|----|----| 
----------------------------|----|----|----|----|----|----|----|----|----|----| 
--2-------------------------|----|----|----|----|----|----|----|----|----|----| 
--0-------------------------|----|----|----|----|----|----|----|----|----|----| 
--0-------------------------|----|----|----|----|----|----|----|----|----|----| 


----|----|| 
----|----|| 
----|----|| 
----|----|| 
----|----|| 
----|----|| 
	  

Search Paypal
auto scroll beats size up size down change color hide chords drawings
tab show chords e-chords YouTube Clip e-chords hide all tabs e-chords go to top tab