Rob Scallon

home > Rob Scallon

Homehomehome Tab

Rob Scallon

Difficulty: nolevelnolevel

by VsWorld

tuner correct add songbook print version text version save to e-mail
chordsukulelecavacokeyboardtabbassdrumsharmonicsflute Guitar Pro
chords

Homehomehome

  		Title: HomeHomeHome 
Artist: Rob Scallon 

Tuning: FCFACGCE 
w/ a  
Capo on the 5th fret of the high 6 strings 

Legend 
L - tied note 
x - dead note 
h - hammer on/pull off 
b - bend 
s - slide 
~ - vibrato 
g - ghost note 
> - accentuated note 
t - trill 
M - palm mute 
. - staccato 
P - popping (bass) 
S - slapping (bass) 
+ - tapping 
W - wide vibrato 
< - fade in 
w - whammy bar 
= - tremolo picking 
v - brush up 
^ - brush down 
V - pick stroke up 
n - pick stroke down 

     ^                                                   
E |--5-----------5-------------------------------------| 
C |--5--------------5----------------------------------| 
G |--10----------------10----------10----14h10L10s12---| 
C |--9--------9-----------------9-----12-------0-------| 
A |--8--------8--------------8-------------------------| 
F |--7--------------------7----------------------------| 
C |--x-------------------------------------------------| 
F |--0-------------------------------------------------| 

  ^                                   ^               
--5-----------5-------------------------------------| 
--5--------------5----------------------------------| 
--12----------------12----------12s---9s-------10---| 
--10-------10----------------10-------7-------------| 
--5--------5--------------5-----------5-------------| 
--5--------------------5--------------5-------------| 
--0-------------------------------------------------| 
----------------------------------------------------| 

  ^                                                   
--5-----------5-------------------------------------| 
--5--------------5----------------------------------| 
--10----------------10----------10-12-14h12-10s12---| 
--9--------9-----------------9----------------------| 
--8--------8--------------8-------------------------| 
--7-------------------------------------------------| 
--x--------------------0----------------------------| 
--0-------------------------------------------------| 

  ^                       ^           ^               
--5-----------5-------------------------------------| 
--5--------------5--------------------5-------------| 
--12----------------12s14-14----------14s-----------| 
--10-------10-------------12----------12s-----------| 
--5--------5--------------5-----------5-------------| 
--5-----------------------5-----------5-------------| 
--0-----------------------0-------------------------| 
----------------------------------------------------| 

  ^                                                   
--5-----------5-------------------------------------| 
--5--------------5----------------------------------| 
--10----------------10----------10----14h10L10s12---| 
--9--------9-----------------9-----12-------0-------| 
--8--------8--------------8-------------------------| 
--7-------------------------------------------------| 
--x--------------------0----------------------------| 
--0-------------------------------------------------| 

  ^                                   ^               
--5-------------------------------------------------| 
--5-----------5-------------------------------------| 
--12-------------14>------------14s---9s-------10---| 
--10-------10-------10-------10-------7-------------| 
--5--------5--------------5-----------5-------------| 
--5--------------------5--------------5-------------| 
--0-------------------------------------------------| 
----------------------------------------------------| 

  ^                                                   
--5-----------5-------------------------------------| 
--5--------------5----------------------------------| 
--10----------------10----------10-12-14h12-10s12---| 
--9--------9-----------------9----------------------| 
--8--------8--------------8-------------------------| 
--7-------------------------------------------------| 
--x--------------------0----------------------------| 
--0-------------------------------------------------| 

  ^                       ^           ^               
--5-----------5-------------------------------------| 
--5--------------5----------------------------------| 
--12----------------12s14-14----------12------------| 
--10-------10-------------12----------10s-----------| 
--5--------5--------------5g----------5g------------| 
--5-----------------------5g----------5g------------| 
--0-----------------------0g----------0g------------| 
----------------------------------------------------| 

  ^                                                   
----------------------------------------------------| 
--------------5-------------------------------------| 
--10-------------10-------------10----10s12----10---| 
--9--------9--------9--------9----------------------| 
--8--------8--------------8-------------------------| 
--7--------------------7-----------7--------7-------| 
----------------------------------------------------| 
----------------------------------------------------| 

  ^                                                   
----------------------------------------------------| 
--------------5-------------------------------------| 
--10~------------10-------------10s---9-------------| 
--9--------9--------9--------9----------------------| 
--8--------8--------------8-------------------------| 
--7--------------------7----------------------------| 
----------------------------------------------------| 
----------------------------------------------------| 

                                                      
----------------------------------------------------| 
--------------5-------------------------------------| 
-----------------9--------------9-----9s-10h5-------| 
--9--------9--------9--------9----------------------| 
--5--------5--------------5-------------------------| 
--5--------------------5-----------5----------------| 
-----------------------------------0----------------| 
----------------------------------------------------| 

                                                      
--------------5-------------------------------------| 
-----------------5----------------------------------| 
--5-----------------5-------------------------------| 
--12-------12----------12-12----------10------------| 
--12-------12----------12-12----------10------------| 
--x-------------------------------------------------| 
--x-------------------------------------------------| 
----------------------------------------------------| 

  ^                                                   
-----------------------------------------------5----| 
--------------5-------------------------------------| 
--10~------------10-------------10----10s12---------| 
--9--------9--------9--------9----------------------| 
--8--------8--------------8-------------------------| 
--7--------------------7-----------7--------5-------| 
----------------------------------------------------| 
----------------------------------------------------| 

                                                                                 
-------------------------------------------------------------------------------- 
--------------------------------------5----------------------------------------- 
--10~------------------------------------------10-------------------------14~--- 
--9--------------------------9--------------------------9--------------5-------- 
--8--------------------------8--------------------------------------5----------- 
--7--------------------------------------------------------------5-------------- 
-------------------------------------------------------------------------------- 
-------------------------------------------------------------------------------- 

                                                                      
--------------------------------------------------------------------| 
--------------------------------------------------------------------| 
--------------------------------------------------------------------| 
--------------------------------------------------------------------| 
--------------------------------------------------------------------| 
--------------------------------------------------------------------| 
--------------------------------------------------------------------| 
--------------------------------------------------------------------| 

                                                      
----------------------------------------------------| 
--------------5-------------------------------------| 
--9~-------------9--------------9-----9s-10h5-------| 
--9~-------9--------9--------9----------------------| 
--5--------5--------------5-------------------------| 
--5--------------------5-----------5----------------| 
-----------------------------------0----------------| 
----------------------------------------------------| 

                                                      
--------------5-------------------------------------| 
-----------------5----------------------------------| 
--5-----------------5-----------5-------------------| 
--12-------12----------------12-------10s---12------| 
--12-------12-------------12----------10s---12------| 
----------------------------------------------------| 
-----------------------0-----------0----------------| 
----------------------------------------------------| 

                                                      
----------------------------------------------------| 
----------------------------------------------------| 
--------------5-----------------5-------------------| 
-----------------12----------12-------10s---12------| 
--------------------12----12----------10s---12------| 
----------------------------------------------------| 
-----------------------0-----------0----------------| 
--0--------0----------------------------------------| 

                                                      
----------------------------------------------------| 
----------------------------------------------------| 
--------------5-----------------5-------------------| 
-----------------12----------10-------10s---12------| 
--------------------12----10----------10s---12------| 
----------------------------------------------------| 
-----------------------0-----------0----------------| 
--0--------0----------------------------------------| 

                              
--------------5-------------| 
-----------5----------------| 
----------------------------| 
--------12------------------| 
-----12---------------------| 
----------------------------| 
--------------2h----0-------| 
--0-------------------------| 

  ^                                                   
--5-----------5-------------------------------------| 
--5--------------5----------------------------------| 
--10----------------10----------10----14h10L10s12---| 
--9--------9-----------------9-----12-------0-------| 
--8--------8--------------8-------------------------| 
--7--------------------7----------------------------| 
--x-------------------------------------------------| 
--0-------------------------------------------------| 

  ^                                   ^               
--5-----------5-------------------------------------| 
--5--------------5----------------------------------| 
--12----------------12----------12s---9s-------10---| 
--10-------10----------------10-------7-------------| 
--5--------5--------------5-----------5-------------| 
--5--------------------5--------------5-------------| 
--0-------------------------------------------------| 
----------------------------------------------------| 

  ^                                                   
--5-----------5-------------------------------------| 
--5--------------5----------------------------------| 
--10----------------10----------10-12-14h12-10s12---| 
--9--------9-----------------9----------------------| 
--8--------8--------------8-------------------------| 
--7-------------------------------------------------| 
--x--------------------0----------------------------| 
--0-------------------------------------------------| 

  ^                       ^           ^               
--5-----------5-------------------------------------| 
--5--------------5--------------------5-------------| 
--12----------------12s14-14----------14------------| 
--10-------10-------------12----------12------------| 
--5--------5--------------5-----------5-------------| 
--5-----------------------5-----------5-----5g-7----| 
--0-------------------------------------------------| 
----------------------------------------------------| 

  ^                                                   
--5-----------5-------------------------------------| 
--5--------------5----------------------------------| 
--10----------------10----------10----14h10L10s12---| 
--9--------9-----------------9-----12-------0-------| 
--8--------8--------------8-------------------------| 
--7-------------------------------------------------| 
--x--------------------0----------------------------| 
--0-------------------------------------------------| 

  ^                                   ^               
--5-------------------------------------------------| 
--5-----------5-------------------------------------| 
--12-------------14>------------14s---9s-------10---| 
--10-------10-------10-------10-------7-------------| 
--5--------5--------------5-----------5-------------| 
--5--------------------5--------------5-------------| 
--0-------------------------------------------------| 
----------------------------------------------------| 

  ^                                                   
--5-----------5-------------------------------------| 
--5--------------5----------------------------------| 
--10----------------10----------10-12-14h12-10s12---| 
--9--------9-----------------9----------------------| 
--8--------8--------------8-------------------------| 
--7-------------------------------------------------| 
--x--------------------0----------------------------| 
--0-------------------------------------------------| 

  ^                       ^           ^               
--5-----------5-------------------------------------| 
--5--------------5--------12----------10------------| 
--12----------------12s14-14----------12------------| 
--10-------10-------------12----------10s-----------| 
--5--------5--------------5-----------5-------------| 
--5-----------------------5-----------5-------------| 
--0-----------------------0-----------0-------------| 
----------------------------------------------------| 

  ^                                                   
-----------------------------------------------5----| 
--------------5-------------------------------------| 
--10~------------10-------------10----10s12---------| 
--9--------9--------9--------9----------------------| 
--8--------8--------------8-------------------------| 
--7--------------------7-----------7--------5-------| 
----------------------------------------------------| 
----------------------------------------------------| 

                                                      
----------------------------------------------------| 
--------------5-------------------------------------| 
--10~------------10-------------10s------9----------| 
--9--------9--------9--------9--9-------------------| 
--8--------8--------------8-------------------------| 
--7--------------------7----------------------------| 
----------------------------------------------------| 
----------------------------------------------------| 

                                                      
----------------------------------------------------| 
--------------5-------------------------------------| 
--9--------------9--------------9-----9s-10h5-------| 
--9>-------9--------9--------9--------9L-9h-5-------| 
--5>-------5--------------5--------5----------------| 
--5>-------------------5----------------------------| 
----------------------------------------------------| 
----------------------------------------------------| 

                                                      
--5-----------5-------------------------------------| 
--5--------------5----------------------------------| 
--5-----------------5-----5-------------------------| 
--12-------12-------------x-------------------------| 
--12-------12----------12-12----------10s-----------| 
--x--------x-----------12-12----------11s-----------| 
----------------------------------------------------| 
----------------------------------------------------| 

                                                      
--------------5-------------------------------------| 
-----------------5----------------------------------| 
--------------------9-----------9-----9s-10----5----| 
-----------5-----------------5----------------------| 
--5>----------------------5-----------------5-------| 
--5>----------------------------------------5-------| 
--5>-------------------5-----------5----------------| 
--0>------------------------------------------------| 

                                                      
--------------5-------------------------------------| 
--5g-------------5--------5g------------------------| 
--5-----------------5-----5g------------------------| 
--5-----------------------x-------------------------| 
--12>------12----------12-12>---------10>-----------| 
--12>------12----------12-12>---------11>-----------| 
----------------------------------------------------| 
----------------------------------------------------| 

                                                      
--------------5-------------------------------------| 
-----------------5----------------------------------| 
--------------------9-----------9-----9s-10----12---| 
-----------5-----------------5----------------------| 
--5>----------------------5-----------------10------| 
--5>-------------------------------5--------5-------| 
--5>-------------------5----------------------------| 
--0>------------------------------------------------| 

                          ^                           
--------------5-------------------------------------| 
-----------------5----------------------------------| 
--12~---------------12s14-14----------14------------| 
--5-----------------------5-----------5--------5----| 
--10~------10-------------12----------12----5-------| 
--5--------5----------------------------------------| 
----------------------------------------------------| 
----------------------------------------------------| 

                                                      
--------------5-------------------------------------| 
-----------------5----------------------------------| 
--------------------9-----------9-----9s-10----5----| 
-----------5-----------------5----------------------| 
--5>----------------------5-----------------5-------| 
--5>----------------------------------------5-------| 
--5>-------------------5-----------5----------------| 
--0>------------------------------------------------| 

                                                      
--------------5-------------------------------------| 
--5g-------------5--------5g------------------------| 
--5-----------------5-----5g------------------------| 
--5-----------------------x-------------------------| 
--12>------12----------12-12>---------10>-----------| 
--12>------12----------12-12>---------11>-----------| 
----------------------------------------------------| 
----------------------------------------------------| 

                                                      
--------------5-------------------------------------| 
-----------------5----------------------------------| 
--------------------9-----------9-----9s-10----12---| 
-----------5-----------------5----------------------| 
--5>----------------------5-----------------10------| 
--5>----------------------------------------5-------| 
--5>-------------------5-----------5----------------| 
--0>------------------------------------------------| 

                          ^                           
--------------5-------------------------------------| 
-----------------5----------------------------------| 
--12~---------------12s14-14~---------14-------5g---| 
--5-----------------------5-----------5--------5g---| 
--10-------10-------------12~---------12----5-------| 
--5--------5--------------------------------5-------| 
----------------------------------------------------| 
----------------------------------------------------| 

  ^                                                   
--------------5-------------------------------------| 
-----------------5----------------------------------| 
--15~---------------15----------15----15h14----15---| 
--14~------------------------14----14---------------| 
--5--------5--------------5-----------------5-------| 
--5--------------------5----------------------------| 
--0-------------------------------------------------| 
--0-------------------------------------------------| 

  ^                                                   
----------------------------------------------------| 
----------------------------------------------------| 
--15~---------15s22-5g----10h---------5-------------| 
--14~---------------------9h----------5-------------| 
--5--------5--------------8h----------5-------------| 
--5--------5--------------7h----------5-------------| 
--0-------------------------------------------------| 
--0-------------------------------------------------| 

  ^                                                   
--------------5-------------------------------------| 
-----------------5----------------------------------| 
--15~---------------15----------15----15h14----14h--| 
--14~------------------------14----14-14h12----12h--| 
--5--------5--------------5-------------------------| 
--5--------------------5--------------------5-------| 
--0-------------------------------------------------| 
--0-------------------------------------------------| 

                                                      
----------------------------------------------------| 
----------------------------------------------------| 
--12----12h10----10----10-10s---12----12s---14s15---| 
--10----10h9-----9-----9--9-----------10------------| 
--------------------------8-----------12------------| 
-----5--------5-----5-----7-----------x-------------| 
----------------------------------------------------| 
----------------------------------------------------| 

  ^                                                   
--------------5-------------------------------------| 
-----------------5----------------------------------| 
--15~---------------15----------15----15h14----15---| 
--14~------------------------14----14-------14------| 
--5--------5--------------5-----------------5-------| 
--5--------------------5--------------------5-------| 
--0-------------------------------------------------| 
--0-------------------------------------------------| 

  ^                                   ^               
--------------------------------------5-------------| 
--------------------------------------5-------------| 
--15~---------15s22-5g----10h---------5-------------| 
--14~---------------------9h----------5-------------| 
--5--------5--------------8h----------5-------------| 
--5-----------------------7h----------5-------------| 
--0-------------------------------------------------| 
--0-------------------------------------------------| 

  ^                                                   
--------------5-------------------------------------| 
-----------------5----------------------------------| 
--15~---------------15----------15----15h14----14h--| 
--14~------------------------14----14-14h12----12h--| 
--5--------5--------------5-------------------------| 
--5--------------------5--------------------5-------| 
--0-------------------------------------------------| 
--0-------------------------------------------------| 

                          ^           ^               
--------------------------------------5-------------| 
--------------------------5-----------9-------------| 
--12----12h10----10----10-10----------5-------------| 
--10----10h9-----9-----9--9-----------9-------------| 
--------------------5-----5-----------0-------------| 
-----5--------5-----5-----------------0-------------| 
--------------------------------------0-------------| 
----------------------------------------------------| 

  ^                                                   
--5-----------5-------------------------------------| 
--5--------------5----------------------------------| 
--10----------------10----------10----14h10L10s12---| 
--9--------9-----------------9-----12-------0-------| 
--8--------8--------------8-------------------------| 
--7-------------------------------------------------| 
--x--------------------0----------------------------| 
--0-------------------------------------------------| 

  ^                                   ^               
--5-----------5-------------------------------------| 
--5--------------5----------------------------------| 
--12----------------12----------12s---9s-------10---| 
--10-------10----------------10-------7-------------| 
--5--------5--------------5-----------5-------------| 
--5--------------------5--------------5-------------| 
--0-------------------------------------------------| 
----------------------------------------------------| 

  ^                                                   
--5-----------5-------------------------------------| 
--5--------------5----------------------------------| 
--10----------------10----------10-12-14h12-10s12---| 
--9--------9-----------------9----------------------| 
--8--------8--------------8-------------------------| 
--7-------------------------------------------------| 
--x--------------------0----------------------------| 
--0-------------------------------------------------| 

  ^                       ^           ^               
--5-----------5-------------------------------------| 
--5--------------5--------------------5-------------| 
--12----------------12s14-14----------14s-----------| 
--10-------10-------------12----------12s-----------| 
--5--------5--------------5-----------5-------------| 
--5-----------------------5-----------5-------------| 
--0-----------------------0-------------------------| 
----------------------------------------------------| 

  ^                                                   
--5-----------5-------------------------------------| 
--5--------------5----------------------------------| 
--10----------------10----------10----14h10L10s12---| 
--9--------9-----------------9-----12-------0-------| 
--8--------8--------------8-------------------------| 
--7-------------------------------------------------| 
--x--------------------0----------------------------| 
--0-------------------------------------------------| 

  ^                                   ^               
--5-------------------------------------------------| 
--5-----------5-------------------------------------| 
--12-------------14>------------14s---9s-------10---| 
--10-------10-------10-------10-------7-------------| 
--5--------5--------------5-----------5-------------| 
--5--------------------5--------------5-------------| 
--0-------------------------------------------------| 
----------------------------------------------------| 

  ^                                                   
--5-----------5-------------------------------------| 
--5--------------5----------------------------------| 
--10----------------10----------10-12-14h12-10s12---| 
--9--------9-----------------9----------------------| 
--8--------8--------------8-------------------------| 
--7-------------------------------------------------| 
--x--------------------0----------------------------| 
--0L-------0L-0L-0L-0L-0L-0L-0L-0L-0L-0L-0L-0L-0----| 

                          ^                            ^                       
--5-----------5-----------5-------------------------|--5L---|--5-------------| 
--5--------------5--------12------------------------|--10L--|--10------------| 
--12----------------12s14-14------------------------|--12L--|--12------------| 
--10-------10-------------12------------------------|--10L--|--10------------| 
--5--------5--------------5-------------------------|--5L---|--5-------------| 
--5-----------------------5-------------------------|--5L---|--5-------------| 
----------------------------------------------------|-------|----------------| 
----------------------------------------------------|-------|----------------| 

  ^ 
--5L---|--5L---|--5L---|--5----|| 
--5L---|--5L---|--5L---|--5----|| 
--9L---|--9L---|--9L---|--9----|| 
--5L---|--5L---|--5L---|--5----|| 
--xL---|--xL---|--xL---|--x----|| 
--12L--|--12L--|--12L--|--12---|| 
--0L---|--0L---|--0L---|--0----|| 
--0L---|--0L---|--0L---|--0----|| 
	  

Search Paypal
auto scroll beats size up size down change color hide chords drawings
tab show chords e-chords YouTube Clip e-chords hide all tabs e-chords go to top tab