Road 69

Crazy Friends

Road 69

tabs

save to print version add songbook text version e-mail correct tuner
chordsukulelecavacokeyboardtabbassdrumsharmonicaflute Guitar Pro
close

there isn't a video lesson for this song

chords

Crazy Friends

	  		Intro: G5 D5 A5 E5 ---> Palm mute 
 
Always had crazy friends... 
 
Riff  
 
e|---------------------------------|  
B|---------------------------------|  
G|-----77----------77--------------| 2x 
D|---55--77-22---55--77-99-7-------|  
A|---------------------------------|  
E|---------------------------------|   
 
verse: G5 A5 B5 C5  4x 
 
Iam think never notice... 
 
Chorus: G5 D5 A5 E5 4x 
 
I discovery...  
 
Intro: 
Verse:---- > repeat all 
Chorus: 
 
Bridge: Riff 2 
 
e|---------------------------------|  
B|---------------------------------|  
G|----7----7--------7----7---------| 2x 
D|---5--7-5--7--2--5--7-5--7-9-7-10|  
A|---------------------------------|  
E|---------------------------------|   
 
Last chorus: G5 D5 A5 E5 

		  

Full key step upFull key step up
Half key step upHalf key step up
Half key step downHalf key step down
Full key step downFull key step down
hide glossary

See also:

tabs Jack Johnson - Good People tabs Rage Against The Machine - Killing In The Name (ver. 2) tabs Blue Oyster Cult - Dont Fear The Reaper tabs R.E.M. - Losing my religion tabs Smashing Pumpkins - Today tabs Foo Fighters - Learn to Fly (acoustic version)
e-chords

Other versions:

tabs Road 69 - Crazy Friends
auto scroll beats size up size down change color hide chords drawings
tab show chords e-chords YouTube Clip e-chords hide all tabs e-chords go to top tab

share