Rise Against

home > Rise Against

Like The Angel Tab

Rise Against

Difficulty: BeginnerBeginner

by fboy

tuner correct add songbook print version text version save to e-mail
chordsukulelecavacokeyboardtabbassdrumsharmonicsflute Guitar Pro
chords

Like The Angel

  		Intro : Bass (but its converted to guitar)  
e|----------------------------------------------------------------------| 
B|----------------------------------------------------------------------| 
G|----------------------------------------------------------------------| 
D|----------------------------------------------------------------------| 
A|-4---4---4--6---6---8---8---8--9---9---9--8---8---8--6---6---6--8~~~~-| 
E|--66--66--6--44--44--99--99--9--99--99--9--99--99--9--88--88--8-6~~~~-| 
                                                           *to get this 
                                                            sound at the 
                                                            end, you'll 
                                                            lots of 
                                                            feedback  
Verse                             
e|------------------------------------------------------------------------| 
B|------------------------------------------------------------------------| 
G|-3-333333----------6-666666----------6-666666-3-333333------------------| 
D|-3-333333-6-666666-6-666666-4-444444-6-666666-3-333333-6-66666666666666-| 
A|-1-111111-6-666666-4-444444-4-444444-4-444444-1-111111-6-66666666666666-| 
E|----------4-444444----------2-222222-------------------4-44444444444444-| 
     ......   ......   ......   ......   ......   ......   ..............  
e|------------------------------------------------------------------------| 
B|------------------------------------------------------------------------| 
G|-3-333333----------6-666666----------6-666666-3-333333------------------| 
D|-3-333333-6-666666-6-666666-4-444444-6-666666-3-333333-6-66666666666666-| 
A|-1-111111-6-666666-4-444444-4-444444-4-444444-1-111111-6-66666666666666-| 
E|----------4-444444----------2-222222-------------------4-44444444444444-| 
     ......   ......   ......   ......   ......   ......   .......????  

Chorus 
e|-----------------------------------------------------------------| 
B|-----------------------------------------------------------------| 
G|-66666666--------------------------------------------------------| 
D|-66666666-44444444-66666666-8888-6666-44444444-66666666-88888888-| 
A|-44444444-44444444-66666666-8888-6666-44444444-66666666-88888888-| 
E|----------22222222-22222222-6666-4444-22222222-22222222-66666666-| 

e|----------------------| 
B|----------------------| 
G|-10-10-10-11-13-11-10-| 
D|----------------------| 
A|----------------------| 
E|----------------------| 

e|-------------------------------------------------------------| 
B|-------------------------------------------------------------| 
G|------------------------------*10s and 11s*----------------| 
D|-44444444-66666666-88888888-1010-11111111-1010-6666-88888888-| 
A|-44444444-66666666-88888888-1010-11111111-1010-6666-88888888-| 
E|-22222222-44444444-66666666-8888-99999999-8888-4444-66666666-| 

Bridge 
e|---------| 
B|6666-----| 
G|----5566-| 
D|---------| 
A|---------| 
E|---------| 

Verse 2 
e|------------------------------------------------------------------------| 
B|------------------------------------------------------------------------| 
G|-3-333333----------6-666666----------6-666666-3-333333------------------| 
D|-3-333333-6-666666-6-666666-4-444444-6-666666-3-333333-6-66666666666666-| 
A|-1-111111-6-666666-4-444444-4-444444-4-444444-1-111111-6-66666666666666-| 
E|----------4-444444----------2-222222-------------------4-44444444444444-| 
     ......   ......   ......   ......   ......   ......   .............. 

e|------------------------------------------------------------------------| 
B|------------------------------------------------------------------------| 
G|-3-333333----------6-666666----------6-666666-3-333333------------------| 
D|-3-333333-6-666666-6-666666-4-444444-6-666666-3-333333-6-66666666666666-| 
A|-1-111111-6-666666-4-444444-4-444444-4-444444-1-111111-6-66666666666666-| 
E|----------4-444444----------2-222222-------------------4-44444444444444-| 
     ......   ......   ......   ......   ......   ......   ....... 

Chorus 
e|-----------------------------------------------------------------| 
B|-----------------------------------------------------------------| 
G|-66666666--------------------------------------------------------| 
D|-66666666-44444444-66666666-8888-6666-44444444-66666666-88888888-| 
A|-44444444-44444444-66666666-8888-6666-44444444-66666666-88888888-| 
E|----------22222222-22222222-6666-4444-22222222-22222222-66666666-| 

e|----------------------| 
B|----------------------| 
G|-10-10-10-11-13-11-10-| 
D|----------------------| 
A|----------------------| 
E|----------------------| 

e|-------------------------------------------------------------| 
B|-------------------------------------------------------------| 
G|------------------------------*10?s and 11?s*----------------| 
D|-44444444-66666666-88888888-1010-11111111-1010-6666-88888888-| 
A|-44444444-66666666-88888888-1010-11111111-1010-6666-88888888-| 
E|-22222222-44444444-66666666-8888-99999999-8888-4444-66666666-| 

Bridge 
E|---------| 
B|6666-----| 
G|----5566-| 
D|---------| 
A|---------| 
E|---------| 

Solo 
e---------------|-4p20-------------------------| 
B------2-4b 2---|------4p2-2-2-2h4-------------| 
G----3--------3-|------------------5-5-5h6h8p6-| 
D--3------------|------------------------------| 
A---------------|------------------------------| 
E---------------|------------------------------| 

e----------------------------|-------------------------------| 
B----------------------------|-------------------------------| 
G-15-15-15p16----------------|-------------------------------| 
D-------------16-15-15-15h16-|-11-11-11h13-10-10-10h12s13s12-| 
A----------------------------|-------------------------------| 
E----------------------------|-------------------------------| 

e------------4-|-------6h8h9-11-11-11-11-11-11p9s8-| 
B-----2-4b-2---|-6h7h8-----------------------------| 
G---3----------|-----------------------------------| 
D-3------------|-----------------------------------| 
A--------------|-----------------------------------| 
E--------------|-----------------------------------| 

E---------------------------------------|----------| 
B-10-10-10h13p11--------------------6h7-|-10-12-13-| 
G----------------10-10-10h13p11--6h8----|-14-16-17-| 
D---------------------------------------|----------| 
A---------------------------------------|----------| 
E---------------------------------------|----------| 
                                               *OR* 
                                  e|----------------------------| 
                                  B|------10-------12-------13--| 
                                  G|-pb12(14)-pb14(16)-pb15(17)-| 
                                  D|----------------------------| 
                                  A|----------------------------| 
                                  E|----------------------------| 

Between Part 
e|----------------------| 
B|----------------------| 
G|----------------------| 
D|----------------------| 
A|-4~-6~-8~-9~-8~-6~-8~-| 
E|-6~-4~-9~-9~-9~-8~-6~-| 

Chorus 
  **Scratch strins before beginning the Chorus** 
(go from the pickups to the frets) 
e|-----------------------------------------------------------------| 
B|-----------------------------------------------------------------| 
G|-66666666--------------------------------------------------------| 
D|-66666666-44444444-66666666-8888-6666-44444444-66666666-88888888-| 
A|-44444444-44444444-66666666-8888-6666-44444444-66666666-88888888-| 
E|----------22222222-22222222-6666-4444-22222222-22222222-66666666-| 

e|----------------------| 
B|----------------------| 
G|-10-10-10-11-13-11-10-| 
D|----------------------| 
A|----------------------| 
E|----------------------| 

e|-------------------------------------------------------------| 
B|-------------------------------------------------------------| 
G|------------------------------*10?s and 11?s*----------------| 
D|-44444444-66666666-88888888-1010-11111111-1010-6666-88888888-| 
A|-44444444-66666666-88888888-1010-11111111-1010-6666-88888888-| 
E|-22222222-44444444-66666666-8888-99999999-8888-4444-66666666-| 

Bridge 
E|---------| 
B|6666-----| 
G|----5566-| 
D|---------| 
A|---------| 
E|---------| 

Outro : Bass (but its converted to guitar)  
e|----------------------------------------------------------------------| 
B|----------------------------------------------------------------------| 
G|----------------------------------------------------------------------| 
D|----------------------------------------------------------------------| 
A|-4---4---4--6---6---8---8---8--9---9---9--8---8---8--6---6---6--8~~~~-| 
E|--66--66--6--44--44--99--99--9--99--99--9--99--99--9--88--88--8-6~~~~-| 

Order of the Song 
Intro - x1 
Verse - x1 
Chorus - x1 
Bridge - x1 
Verse 2 - x1 
Chorus - x1 
Bridge - x1 
Solo - x1 
Between Part - x2 
(Scratch between Between Part and Chorus that follows) 
Chorus - x1 
Bride - x1 
Outro - x1 
	  

Search Paypal
auto scroll beats size up size down change color hide chords drawings
tab show chords e-chords YouTube Clip e-chords hide all tabs e-chords go to top tab