Riot

Thundersteel

Riot

tabs

by  ANDRSOUZA

save to print version add songbook text version e-mail correct tuner
chordsukulelecavacokeyboardtabbassdrumsharmonicaflute Guitar Pro
close

there isn't a video lesson for this song

chords

Thundersteel

	  		

Intro riff X8 
e|--------------------------------------------------------------------------| 
B|--------------------------------------------------------------------------| 
G|--------------------------------------------------------------------------| 
D|-----3p2p0--3p2p0---5p2--3p2-------------------3p2p0--3p2p0------5--------| 
A|--0----------------------------5p0--3-----0-------------------3--3--5-----| 
E|--------------------------------------------------------------1-----3-----| 

Verse 
e|--------------------------------------------------------------------------| 
B|--------------------------------------------------------------------------| 
G|--------------------------------------------------------------------------| 
D|--2-----------------------------------------------------------------------| 
A|--0--0-0-0-0-0-0-0-0-0-0--2-3--------------------------------0-3-2--------| 
E|--------------------------0-1-1-1-1-1-1-1-1-1-1-1-1---0-1-4---------------| 

e|--------------------------------------------------------------------------| 
B|--------------------------------------------------------------------------| 
G|--------------------------------------------------------------------------| 
D|--2-----------------------------------------------------------------------| 
A|--0--0-0-0-0-0-0-0-0-0-0--2-3--------------------------------0-2-3--------| 
E|--------------------------0-1-1-1-1-1-1-1-1-1-1-1-1---0-1-4---------------| 

Pre Chorus 
e|--------------------------------------------------------------------------| 
B|--------------------------------------------------------------------------| 
G|--------------------------------------------------------------------------| 
D|--7------------------------5----------------------------------------------| 
A|--5--------0-2-0-----3--5--3--5-------------------------------------------| 
E|-------0-4-------4---1--3-----3-------------------------------------------| 
In the Chorus play the intro riff 

Solo 
e|--8---------8----------8----10-8------------8---------8----------8----10-8---| 
B|----12-10-8---12-10-12---12------12-10-8-12---12-10-8---12-10-12---12--------| 
G|-----------------------------------------------------------------------------| 
D|-----------------------------------------------------------------------------| 
A|-----------------------------------------------------------------------------| 
E|-----------------------------------------------------------------------------| 

e|--7-------------5----------------------------------------------13-15-12-13| 
B|----10-5-b8(10)---8-5-8-5-------------------------------------------------| 
G|---------------------------8-7-5-7-5--------------------------------------| 
D|--------------------------------------7-5-7-5-----------------------------| 
A|-----------------------------------------------7-5--7/10-7----------------| 
E|--------------------------------------------------------------------------| 

e|-----12-------------------------------------------------------------------| 
B|--15----13-15-12-13-------------------------------------------------------| 
G|--------------------12-14-------------------------------------------------| 
D|--------------------------15-12-14-15-12-14---12--------------------------| 
A|--------------------------------------------15--14-15-12-14-11-12---------| 
E|-------------------------------------------------------------------13-15--| 

e|--------------------------------------------13-15-16-17-19-20-b20(22)-----| 
B|-----------------------------------13-15-17-------------------------------| 
G|--------------------------12-14-16----------------------------------------| 
D|--------------------12-14-------------------------------------------------| 
A|-----------12-14-15-------------------------------------------------------| 
E|--12-13-15----------------------------------------------------------------| 

e|-----------17----------------------17---------------------17--------------| 
B|--17-18-20----20-18-17-18-17-18-20----20-18-17---17-18-20----20-18-17---17| 
G|-----------------------------------------------19---------------------19--| 
D|--------------------------------------------------------------------------| 
A|--------------------------------------------------------------------------| 
E|--------------------------------------------------------------------------| 

e|----------------17-------15-------13-12-13-10-12--------------------------| 
B|--18-b20(22)-------15\13----13\12----------------13-12-10-----------------| 
G|----------------------------------------------------------12-9------12-9--| 
D|---------------------------------------------------------------12-10------| 
A|--------------------------------------------------------------------------| 
E|--------------------------------------------------------------------------| 

e|--17p14--------14p11--------11p8------------------------------------------| 
B|--------16-----------13----------10-----13p10-------10p7-------7p4--------| 
G|-----------17-----------14----------11--------11---------8---------5------| 
D|-------------------------------------------------13--------10--------7----| 
A|--------------------------------------------------------------------------| 
E|--------------------------------------------------------------------------| 

e|--------------------------------------------------------------------------| 
B|--------------------------------------------------------------------12-13-| 
G|--8p5-------------------------------------------------11-14-11-14-14------| 
D|------7----10p7---------------------------10-13-10-13---------------------| 
A|--------9-------9---------------9-12-9-12---------------------------------| 
E|------------------11--8-11-8-11-------------------------------------------| 

e|--------------------------------------------------------------------------| 
B|-----12-13-b15(17)-b15(17)------------------------------------------------| 
G|--14----------------------------------------------------------------------| 
D|--------------------------------------------------------------------------| 
A|--------------------------------------------------------------------------| 
E|--------------------------------------------------------------------------| 

Bridge 
e|--------------------------------------------------------------------------| 
B|--------------------------------------------------------------------------| 
G|--------------------------------------------------------------------------| 
D|--------------------------------------------------------------------------| 
A|------------------------------------------------2-2-2-2-2-5--2-2-2-2-2-0--| 
E|--2-2-2-2-2-0--2-2-2-2-2-5--2-2-2-2-2-0--3-2-5----------------------------| 

e|--------------------------------------------------------------------------| 
B|--------------------------------------------------------------------------| 
G|--------------------------------------------------------------------------| 
D|--------------------------------------------------------------------------| 
A|--2-2-2-2-2-5--2-0-------------------------------------------------2-2-2-2| 
E|-------------------3--2-2-2-2-2-0--2-2-2-2-2-5--2-2-2-2-2-0--3-2-5--------| 

e|--------------------------------------------------------------------------| 
B|--------------------------------------------------------------------------| 
G|--------------------------------------------------------------------------| 
D|--------------------------------------------------------------------------| 
A|--2-5--2-2-2-2-2-0--2-2-2-2-2-5--5-4-7-2----------------------------------| 
E|---------------------------------3-2-5-0----------------------------------| 

Second solo 
e|--19p15----15-19p15-19p15----15-19p15-19p15----15--15p12----12-15p12-15p12| 
B|--------17----------------17----------------17-----------13---------------| 
G|--------------------------------------------------------------------------| 
D|--------------------------------------------------------------------------| 
A|--------------------------------------------------------------------------| 
E|--------------------------------------------------------------------------| 

e|-----12-15p12-15p12---12--17p14---14-17p14-17p14----14-17p14-17p14----14--| 
B|--13----------------13----------15---------------15----------------15-----| 
G|--------------------------------------------------------------------------| 
D|--------------------------------------------------------------------------| 
A|--------------------------------------------------------------------------| 
E|--------------------------------------------------------------------------| 

e|--14p11----11-14p11-14p11----14p11-14p11----11------------------------------| 
B|--------12----------------12-------------12---------------------------------| 
G|----------------------------------------------------------------------------| 
D|----------------------------------------------------------------------------|X2 
A|----------------------------------------------------------------------------| 
E|----------------------------------------------------------------------------| 

e|--15p12----12-15p12-15p12----12-15p12-15p12---12---10p7---7-10p7-10p7---7-| 
B|--------13----------------13----------------13----------8-------------8---| 
G|--------------------------------------------------------------------------| 
D|--------------------------------------------------------------------------| 
A|--------------------------------------------------------------------------| 
E|--------------------------------------------------------------------------| 

e|--10p7-10p7---7---12p8---8-12p8-12p8---8-12p8-12p8---8---14p11---11-14p11-| 
B|------------8----------8-------------8-------------8-----------12---------| 
G|--------------------------------------------------------------------------| 
D|--------------------------------------------------------------------------| 
A|--------------------------------------------------------------------------| 
E|--------------------------------------------------------------------------| 

e|--14p11----11-14p11-14p11---11---15p12----12-15p12-15p12----12-15p12-15p12| 
B|--------12----------------12-----------13----------------13---------------| 
G|--------------------------------------------------------------------------| 
D|--------------------------------------------------------------------------| 
A|--------------------------------------------------------------------------| 
E|--------------------------------------------------------------------------| 

e|-----12---10p7---7-10p7-10p7---7-10p7-10p7---7--/20-----------------------| 
B|--13-----------8-------------8-------------8---------/15-/12--------------| 
G|-------------------------------------------------------------/14----------| 
D|--------------------------------------------------------------------------| 
A|--------------------------------------------------------------------------| 
E|--------------------------------------------------------------------------| 

e|----------------------------------------------------------------------8---| 
B|--------------------------------------------------------------------7-----| 
G|--------7-----------------------------------------9-12/14-11-7--4-8-------| 
D|----5-9---9-5---------------------10-9h10p9p7--0--------------------------| 
A|--7-------------7-10/12-9-5---6-9-----------------------------------------| 
E|--------------8-------------7---------------------------------------------| 

e|--7h8p7p5-----12-15/17-14--------------20-19-22-b22(24)-------------------| 
B|----------/12-------------15--19-17-16------------------------------------| 
G|--------------------------------------------------------------------------| 
D|--------------------------------------------------------------------------| 
A|--------------------------------------------------------------------------| 
E|----------------------------------------------------------0--1--3--4------| 

Final 
e|--------------------------------------------------------------------------| 
B|--------------------------------------------------------------------------| 
G|--------------------------------------------------------------------------| 
D|--3-2-----2-----2-------------3-2-----2-----2-------------3-2-----2-----2-| 
A|------5-3---5-3---5-3-2-5-3-2-----5-3---5-3---5-3-2-5-3-2-----5-3---5-3---| 
E|--------------------------------------------------------------------------| 

e|--------------------------------------------------------------------------| 
B|--------------------------------------------------------------------------| 
G|---------------5-4-2---4-2-----2------------------------------------------| 
D|---------------------5-----5-3---5-3-2-5-3-2---3-2-----2------------------| 
A|--5-3-2-5-3-2--------------------------------5-----5-3---5-3-2-5-3-2---3-2| 
E|---------------------------------------------------------------------5----| 

e|--------------------------------------------------------------------------| 
B|-----------------10----------------------------10h13p10----10-------------| 
G|----------------b12(14)--14p12-------12---9-12----------12---12-9---------| 
D|-------2--2--2-----------------14p12------------------------------12p10---| 
A|-------0--0--0----------------------------------------------------------12| 
E|--5-3---------------------------------------------------------------------| 

e|--------------------------------------------------------------12----------| 
B|--------------------------------------------12-13-15-12-13-15----13-15----| 
G|--------------------------------------12-14-------------------------------| 
D|--10----------------------------------------------------------------------| 
A|-----12p10------------7-10-7----------------------------------------------| 
E|-----------12-10-8-10--------10-8-5---------------------------------------| 

e|--12-13-15-12-13-15-15/17-------------------------------------------------| 
B|--------------------------------------------------------------------------| 
G|--------------------------------------------------------------------------| 
D|--------------------------------7-----------------------------------------| 
A|--------------------------------7-----------------------------------------| 
E|----------------------------0---5-----------------------------------------| 

************************************ 

| /   slide up 
| \   slide down 
| h   hammer-on 
| p   pull-off 
| ~   vibrato 
| +   harmonic 
| x   Mute note 
| b   Bend 
| pb  Pre-bend 
| br  Bend release 
| pbr Pre-bend release 
| brb Bend release bend 

************************************ 
		  

See also:

tabs Deep Purple - Sail Away tabs Deep Purple - Pictures of Home tabs Deep Purple - Lazy tabs Deep Purple - Highway Star tabs Deep Purple - Deep Purple - Smoke On The Water tabs Deep Purple - Smoke On The Water (Intro + solo 01)
e-chords

Other versions:

tabs Riot - Thundersteel
auto scroll beats size up size down change color hide chords drawings
tab show chords e-chords YouTube Clip e-chords hide all tabs e-chords go to top tab

share