Rie Fu

So Re Da Ke

Rie Fu

tabs

by  FERNSANTANA

save to print version add songbook text version e-mail correct tuner
chordsukulelecavacokeyboardtabbassdrumsharmonicaflute Guitar Pro
close

there isn't a video lesson for this song

chords

So Re Da Ke

	  		

Tuning: standart 


e|---------------------------------------------------------------------------| 
B|----0-----0-----0-----0-----0----------------------------------------------|   
G|------0-----0-----0-----0-----0--------------------------------------------|  x4 
D|---------------------------------------------------------------------------| 
A|--5-----7-----9-----7-----5------------------------------------------------| 
E|---------------------------------------------------------------------------| 

e|------------0-------------0--------------0-------------0-------------------| 
B|------0-------0-----0-------0--0-----0-----0-0-----0-----0-----------------| 
G|--------6-------------6------------7---7---------7---7---------------------| 
D|----5-----5-------5-----5--------5-------------5---------------------------| 
A|--0-------------0--------------0-------------0-----------------------------| 
E|---------------------------------------------------------------------------| 

e|---------------------------------------------------------------------------| 
B|----0-----0-----0-----0-----0----------------------------------------------|   
G|------0-----0-----0-----0-----0--------------------------------------------|  x2 
D|---------------------------------------------------------------------------| 
A|--5-----7-----9-----7-----5------------------------------------------------| 
E|---------------------------------------------------------------------------| 

e|------------0-------------0--------------0-------------0-------------------| 
B|------0-------0-----0-------0--0-----0-----0-0---0-------0-----------------| 
G|--------6-------------6------------7---7-----------6-----------------------| 
D|----5-----5-------5-----5--------5-------------7-----7---------------------| 
A|--0-------------0--------------0-------------0-----------------------------| 
E|---------------------------------------------------------------------------| 

e|----------0------------0----|    |----------------------------------------------| 
B|--0---0-----0--6---6--------|    |-1---1-1---1-1---1-1---1-1-----3-----3--------| 
G|----5---5-------------------| x2 |---2-----2-----2-----2-------4-----4----------|  
D|-----------------5---5------|    |----------------------------------------------| 
A|--0------------5------------|    |----------------------------------------------| 
E|----------------------------|    |-1-----1-----1-----1-----1-3-----3-----3------| 

*) 

e|------2-----3-2------------------------------------------------------------| 
B|--------3-------------5-----5-------0-----0-----7---8-7--------------------| 
G|----2-----2-----2-------5-----5-------2-----2-----0-----0------------------| 
D|--0-----------------5-----5-------1-----1----------------------------------| 
A|------------------0-------------2-------------7----------------------------| 
E|---------------------------------------------------------------------------| 

e|--------0-----------0---------0---------------0----------------------------| 
B|----3-----3-----3-----3---3-----3-------2-------2--------------------------| 
G|------0-----0-----0---------0-----0-------0-------0------------------------| 
D|--------------------------------------2-----2------------------------------| 
A|--3-----------2---------1-----------0--------------------------------------| 
E|---------------------------------------------------------------------------| 

e|------2-----3-2------------------------------------------------------------| 
B|--------3-------------5-----5-------0-----0-----7---8-7--------------------| 
G|----2-----2-----2-------5-----5-------2-----2-----0-----0------------------| 
D|--0-----------------5-----5-------1-----1----------------------------------| 
A|------------------0-------------2-------------7----------------------------| 
E|---------------------------------------------------------------------------| 

e|--------0-----------0---------0--------------------------------------------| 
B|----3-----3-----3-----3---3-----3------------------------------------------| 
G|------0-----0-----0---------0-----0----------------------------------------| 
D|---------------------------------------------------------------------------| 
A|--3-----------2---------1------------3-------------------------------------| 
E|---------------------------------------------------------------------------| 

#) 

e|----3-----3-----3-----3-----3-----3-----3-----3-----3-----3-----3------3---| 
B|------3-----3-----3-----3-----3-----3-----3-----3-----3-----3-----3------3-| 
G|---------------------------------------------------------------------------| 
D|--------3-----2-----1-----0-----3-----2-----1-----0-----3-----2------1-----| 
A|---------------------------------------------------------------------------| 
E|--3------------------------------------------------------------------------| 

e|------------------------------------0--------------------------------------| 
B|----3-----3-----3-----3-------2-------2----2-------------------------------| 
G|------0-----0-----0-----0-------0-------0--0-------------------------------| 
D|--------------0-----2-------2-----2--------2-------------------------------| 
A|--2-----3-----------------0----------------0-------------------------------| 
E|---------------------------------------------------------------------------| 

repeat *) 

e|--------------------------------|    |--------------------------------------| 
B|----0-----0-----0-----0-----0---|    |----0-----0-----0-------0-------------|   
G|------0-----0-----0-----0-----0-| x3 |------0-----0-----0-----0-------------| 
D|--------------------------------|    |------------------------0-------------| 
A|--5-----7-----9-----7-----5-----|    |--5-----7-----9-----7---5-------------| 
E|--------------------------------|    |------------------------2-------------| 



************************************ 

| /   slide up 
| \   slide down 
| h   hammer-on 
| p   pull-off 
| ~   vibrato 
| +   harmonic 
| x   Mute note 
| b   Bend 
| pb  Pre-bend 
| br  Bend release 
| pbr Pre-bend release 
| brb Bend release bend 

************************************ 
		  

See also:

tabs Dazzle Vision - Second tabs One Ok Rock - No Scared tabs Nightmare - Tokyo Shounen tabs Pillows - We Have a Theme Song tabs Asian Kung-fu Generation - Riraito tabs Kimura Kaela - Oh Pretty Woman
e-chords

Other versions:

tabs Rie Fu - So Re Da Ke
auto scroll beats size up size down change color hide chords drawings
tab show chords e-chords YouTube Clip e-chords hide all tabs e-chords go to top tab

share