Rick and Morty

home > Rick and Morty

Evil Morty Theme Song Tab

Rick and Morty

Difficulty: nolevelnolevel

by andrsouza

tuner correct add songbook print version text version save to e-mail
chordsukulelecavacokeyboardtabbassdrumsharmonicsflute Guitar Pro
chords

Evil Morty Theme Song

	  
E|------------------------------------------------------| 
B|------3--0--3------3--0--3----------------------------| 
G|------------------------------------------------------| 
D|------------------------------------------------------| 
A|--4------------4--------------------------------------| 
E|------------------------------------------------------| 

E|------------------------------------------------------| 
B|------3--0--3------3--0--3----------------------------| 
G|------------------------------------------------------| 
D|------------------------------------------------------| 
A|--4------------4--------------------------------------| 
E|------------------------------------------------------| 

E|------------------------------------------------------| 
B|------1------1-------1-----------1--------------------| 
G|----------3---------------3---------------------------| 
D|------------------------------------------------------| 
A|-----------------3------------------------------------| 
E|--3---------------------------------------------------| 

E|------------------------------------------------------| 
B|------1------1-------1-----------1--------------------| 
G|----------3---------------3---------------------------| 
D|------------------------------------------------------| 
A|-----------------3------------------------------------| 
E|--3---------------------------------------------------| 

E|------------------------------------------------------| 
B|------------------------------------------------------| 
G|------1-------1----------1------------1---------------| 
D|---0------3--------0----------3-----------------------| 
A|------------------------------------------------------| 
E|------------------------------------------------------| 

E|------------------------------------------------------| 
B|--------0--------0----------0----------0--------------| 
G|------------1---------------------1-------------------| 
D|----0-----------------0-------------------------------| 
A|------------------------------------------------------| 
E|------------------------------------------------------| 

E|--8---3---8---3---6---1---6---1-----------------------| 
B|------------------------------------------------------| 
G|------------------------------------------------------| 
D|------------------------------------------------------| 
A|------------------------------------------------------| 
E|------------------------------------------------------| 

E|---4---1---4---1---3---1---3--------------------------| 
B|-------------------------------3----------------------| 
G|------------------------------------------------------| 
D|------------------------------------------------------| 
A|------------------------------------------------------| 
E|------------------------------------------------------| 

E|------------------------------------------------------| 
B|---4---1-------1---4---1-------1----------------------| 
G|------------1--------------1--------------------------| 
D|------------------------------------------------------| 
A|------------------------------------------------------| 
E|------------------------------------------------------| 

E|------------------------------------------------------| 
B|---3---------------3---0-------0----------------------| 
G|-------3-------3-----------0--------------------------| 
D|-----------3------------------------------------------| 
A|------------------------------------------------------| 
E|------------------------------------------------------| 

E|-----------------1-------3---8---6-----4--------------| 
B|---------------------4--------------------------------| 
G|------------------------------------------------------| 
D|------------------------------------------------------| 
A|------------------------------------------------------| 
E|------------------------------------------------------| 

E|--3---4---3---1--------------3---8---6-----4----------| 
B|------------------4------1----------------------------| 
G|------------------------------------------------------| 
D|------------------------------------------------------| 
A|------------------------------------------------------| 
E|------------------------------------------------------| 

E|--3-----4-----3-----1----------------3---------3------| 
B|------------------------4------------------1-------1--| 
G|------------------------------------------------------| 
D|------------------------------------------------------| 
A|------------------------------------------------------| 
E|------------------------------------------------------| 

E|--3----------4-----------3----------1-----------------| 
B|------1----------1-----------0----------3---4---------| 
G|------------------------------------------------------| 
D|------------------------------------------------------| 
A|------------------------------------------------------| 
E|------------------------------------------------------| 

E|------3---8---6-----4-----3-----4-----3-----1---------| 
B|-1------------------------------------------------4---| 
G|------------------------------------------------------| 
D|------------------------------------------------------| 
A|------------------------------------------------------| 
E|------------------------------------------------------| 

E|--------3---8---6----4---3---4---3---1----------------| 
B|----1------------------------------------4------------| 
G|------------------------------------------------------| 
D|------------------------------------------------------| 
A|------------------------------------------------------| 
E|------------------------------------------------------| 

E|---3-------4--------3-----------1---------------------| 
B|-------1-------1--------0-----------3---4-------------| 
G|------------------------------------------------------| 
D|------------------------------------------------------| 
A|------------------------------------------------------| 
E|------------------------------------------------------| 

E|---1---3---8---6---4----------------------------------| 
B|------------------------------------------------------| 
G|------------------------------------------------------| 
D|------------------------------------------------------| 
A|------------------------------------------------------| 
E|------------------------------------------------------| 

E|---3---4---3---1--------------------------------------| 
B|-------------------4----------------------------------| 
G|------------------------------------------------------| 
D|------------------------------------------------------| 
A|------------------------------------------------------| 
E|------------------------------------------------------| 

E|--------3---8---6---4---3---3---3---1-----------------| 
B|----1-----------------------------------4-------------| 
G|------------------------------------------------------| 
D|------------------------------------------------------| 
A|------------------------------------------------------| 
E|------------------------------------------------------| 


E|-------------------1---1---3--------------------------| 
B|---1---1---3---4---------------4----------------------| 
G|------------------------------------------------------| 
D|------------------------------------------------------| 
A|------------------------------------------------------| 
E|------------------------------------------------------| 

E|-------------------1---1---3--------------------------| 
B|---1---1---3---4---------------4----------------------| 
G|------------------------------------------------------| 
D|------------------------------------------------------| 
A|------------------------------------------------------| 
E|------------------------------------------------------| 

E|-------------------1---1---3--------------------------| 
B|---1---1---3---4---------------4----------------------| 
G|------------------------------------------------------| 
D|------------------------------------------------------| 
A|------------------------------------------------------| 
E|------------------------------------------------------| 

E|-------------------1---1---3--------------------------| 
B|---1---1---3---4---------------4----------------------| 
G|------------------------------------------------------| 
D|------------------------------------------------------| 
A|------------------------------------------------------| 
E|------------------------------------------------------| 

E|-------------------1---1---3--------------------------| 
B|---1---1---3---4---------------4----------------------| 
G|------------------------------------------------------| 
D|------------------------------------------------------| 
A|------------------------------------------------------| 
E|------------------------------------------------------| 

E|-------------------1---1---3--------------------------| 
B|---1---1---3---4---------------4----------------------| 
G|------------------------------------------------------| 
D|------------------------------------------------------| 
A|------------------------------------------------------| 
E|------------------------------------------------------| 

E|-------------------1---1---3--------------------------| 
B|---1---1---3---4---------------4----------------------| 
G|------------------------------------------------------| 
D|------------------------------------------------------| 
A|------------------------------------------------------| 
E|------------------------------------------------------| 

E|-------------------1---1---3--------------------------| 
B|---1---1---3---4---------------4----------------------| 
G|------------------------------------------------------| 
D|------------------------------------------------------| 
A|------------------------------------------------------| 
E|------------------------------------------------------| 

E|------------------------------------------------------| 
B|-----1------------------------------------------------| 
G|------------------------------------------------------| 
D|------------------------------------------------------| 
A|------------------------------------------------------| 
E|------------------------------------------------------| 
	  

there isn't a video lesson for this song

request
Search
auto scroll beats size up size down change color hide chords drawings
tab show chords e-chords YouTube Clip e-chords hide all tabs e-chords go to top tab