Richard Dyer-bennet

So Well Go No More A-roving

Richard Dyer-bennet

tabs

by  JOV-CORREA

save to print version add songbook text version e-mail correct tuner
chordsukulelecavacokeyboardtabbassdrumsharmonicaflute Guitar Pro
close

there isn't a video lesson for this song

chords

So Well Go No More A-roving

	  		I Intro: 

  Em                       D                   
e|------0-----------0-----|------2-----------2-----| 
b|----0---0-------0-------|----3---3-------3-------| 
g|--0-------0---0-------0-|--2-------2---2-------0-| 
D|2-----------2-------4---|0-----------0-------2---| 
A|------------------------|------------------------| 
E|------------------------|------------------------| 

  C                        Em                   
e|------0-----------0-----|------------------------| 
b|----1---1-------1-------|------0-----------0-----| 
g|--0-------0---0-------0-|----0---0-------0---0---| 
D|--------------------0---|--2-------2---2-------0-| 
A|3-----------3-----------|2-----------2-----------| 
E|------------------------|------------------------| 

  Am                       G                    
e|------------------------|------------------------| 
b|------1-----------1-----|------0-----------0-----| 
g|----2---2-------2-------|----0---0-------0-------| 
D|--2-------2---2-------0-|--0-------0---0-------0-| 
A|0-----------0-------2---|--------------------0---| 
E|------------------------|3-----------3-----------| 

  B7                       Em                    
e|------------------------|------------------------| 
b|------0-----------0-----|------------------------| 
g|----2---2-------2-------|------0-----------0-----| 
D|--1-------1---1-------0-|----2---2-------2---2---| 
A|------------------------|--2-------2---2-------2-| 
E|2-----------2-------3---|0-----------0-----------| 

  Em                       
e|------------------------| 
b|------------------------| 
g|------0-----------0-----| 
D|----2---2-------2---2---| 
A|--2-------2---2-------2-| 
E|0-----------0-----------| 
                   So we'll 

II Verse: 

  Em          Am           Em 
e|------------------------|------------------------| 
b|------------------1-----|------0-----------0-----| 
g|------0---------2---2---|----0---0-------0---0---| 
D|----2---2-----2-------2-|--2-------2---2-------2-| 
A|--2-------2-0-----------|------------------------| 
E|0-----------------------|0-----------0-----------| 
  go       no more      a  ro-        -ving      So 

  Em          D            G           B7           
e|------------------2-----|------3-----------------| 
b|------0---------3---3---|----0---0---------0-----| 
g|----0---0-----2-------2-|--0-------0-----2---2---| 
D|--2-------2-0-----------|--------------1-------1-| 
A|------------------------|------------------------| 
E|0-----------------------|3-----------2-----------| 
  late      into       the night              Tho' the 

  Em          Am           Em 
e|------------------------|------------------------| 
b|------0-----------1-----|------0-----------0-----| 
g|----0---0-------2---2---|----0---0-------0---0---| 
D|--2-------2---2-------2-|--2-------2---2-------2-| 
A|------------0-----------|------------------------| 
E|0-----------------------|0-----------0-----------| 
  heart    be still    as  lov-       -ing     And the 

  Em          B7           Em 
e|------------------------|------------------------| 
b|------0-----------0-----|------0-----------0-----| 
g|----0---0-------2---2---|----0---0-------0---0---| 
D|--2-------2---1-------1-|--2-------2---2-------2-| 
A|------------------------|------------------------| 
E|0-----------2-----------|0-----------0-----------| 
  moon     be still     as bright              For the 

III Bridge: 

  B7                       Em 
e|------------------------|------------------------| 
b|------0-----------0-----|------0-----------0-----| 
g|----2---2-------2---2---|----0---0-------0---0---| 
D|--1-------1---1-------1-|--2-------2---2-------2-| 
A|------------------------|------------------------| 
E|2-----------2-----------|0-----------0-----------| 
  sword    outwears    the sheath              And the 

  D                        G  
e|------2-----------2-----|------3-----------3-----| 
b|----3---2-------3---3---|----0---0-------0---0---| 
g|--2-------2---2-------2-|--0-------0---0-------0-| 
D|0-----------------------|------------------------| 
A|------------0-----------|------------2-----------| 
E|------------------------|3-----------------------| 
  soul wears out       the breast              And the 
  
  F#                       B#m 
e|------2-----------2-----|------2-----------2-----| 
b|----2---2-------2---2---|----3---3-------3---3---| 
g|--3-------3---3-------3-|--4-------4---4-------4-| 
D|------------------------|4-----------------------| 
A|------------4-----------|------------2-----------| 
E|2-----------------------|------------------------| 
  heart  must pause     to breath                And 
   
  A                        D 
e|------0-----------0-----|------2-----------2-----| 
b|----2---2-------2---2---|----3---3-------3---3---| 
g|--2-------2---2-------2-|--2-------2---2-------2-| 
D|------------2-----------|0-----------------------| 
A|0-----------------------|------------0-----------| 
E|------------------------|------------------------| 
  love itself         must rest 

  D 
e|------2-----------------| 
b|----3---3---------------| 
g|--2-------2-------------| 
D|------------0-----------| 
A|------------------------| 
E|2-------------------3-2-| 
                   Tho' the 

IV Verse: 
  Em          Am           Em 
e|------------------0-----|------0-----------0-----| 
b|------0---------1---1---|----0---0-------0---0---| 
g|----0---0-----2-------2-|--0-------0---0-------0-| 
D|--2-------2-------------|------------------------| 
A|------------0-----------|------------------------| 
E|0-----------------------|0-----------0-----------| 
  night   was made    for  lov-       -ing     And the 

  Em          D            G           B7           
e|------0-----------2-----|------3-----------2-----| 
b|----0---0-------3---3---|----0---0-------0---0---| 
g|--0-------0---2-------2-|--0-------0---2-------2-| 
D|------------0-----------|------------------------| 
A|------------------------|------------------------| 
E|0-----------------------|3-----------2-----------| 
  day       return     too soon                Yet we'll 

  Em          Am           Em 
e|------0-----------0-----|------0-----------0-----| 
b|----0---0-------1---1---|----0---0-------0---0---| 
g|--0-------0---2-------2-|--0-------0---0-------0-| 
D|------------------------|------------------------| 
A|------------0-----------|------------------------| 
E|0-----------------------|0-----------0-----------| 
  go       no more       a ro-        -ving     By the 

  Em          B7            
e|------0-----------2-----|------------| 
b|----0---0-------0---0---|------------| 
g|--0-------0---2-------2-|------------| 
D|------------------------|------------| 
A|------------------------|------------| 
E|0-----------2-----------|------------| 
  light       of           the 

V Outro: 

  Em          D            C           Em      
e|------0-----------2-----|------0-----------------| 
b|----0---0-------3---3---|----1---1---------0-----| 
g|--0-------0---2-------2-|--0-------0-----0---0---| 
D|2-----------0-----------|--------------2-------2-| 
A|------------------------|3-----------2-----------| 
E|------------------------|------------------------| 
  moon 

  Am          G            B7          Em      
e|------------------------|----------------------0-| 
b|------1-----------0-----|------0-------------0---| 
g|----2---2-------0---0---|----2---2---------0-----| 
D|--2-------2---0-------0-|--1-------1-----2-------| 
A|0-----------------------|--------------2---------| 
E|------------3-----------|2-----------0-----------| 
		  

Full key step upFull key step up
Half key step upHalf key step up
Half key step downHalf key step down
Full key step downFull key step down
hide glossary

See also:

tabs Deep Purple - Strange kind of woman tabs Deep Purple - Smoke On The Water tabs Deep Purple - Time To Kill tabs Albert Hammond Jr - Gfc tabs Deep Purple - Soldier Of Fortune tabs Ira! - Nucleo De Base
e-chords

Other versions:

tabs Richard Dyer-bennet - So Well Go No More A-roving
auto scroll beats size up size down change color hide chords drawings
tab show chords e-chords YouTube Clip e-chords hide all tabs e-chords go to top tab

share